0
SECTION
2
HEADER
9
$ACADVER
1
AC1015
9
$ACADMAINTVER
 70
6
9
$DWGCODEPAGE
3
ANSI_932
9
$EXTMIN
10
0.000
20
0.000
30
0.0
9
$EXTMAX
10
4200.000
20
2970.000
30
0.0
9
$LIMMIN
10
0.000
20
0.000
9
$LIMMAX
10
4200.000
20
2970.000
9
$DIMSCALE
40
10.000000
9
$LTSCALE
40
10.000
9
$PDMODE
70
0
9
$PDSIZE
40
40.0
9
$HANDSEED
5
61f84
9
$UNITMODE
70
0
9
$VISRETAIN
70
0
9
$PLINEGEN
70
0
9
$PSLTSCALE
70
1
9
$TREEDEPTH
70
3020
9
$CMLSTYLE
2
STANDARD
9
$CMLJUST
70
0
9
$CMLSCALE
40
1.0
9
$PROXYGRAPHICS
70
1
9
$MEASUREMENT
70
0
9
$CELWEIGHT
370
-1
9
$ENDCAPS
280
0
9
$JOINSTYLE
280
0
9
$LWDISPLAY
290
0
9
$INSUNITS
70
0
9
$HYPERLINKBASE
1

9
$STYLESHEET
1

9
$XEDIT
290
1
9
$CEPSNTYPE
380
0
9
$PSTYLEMODE
290
1
9
$FINGERPRINTGUID
2
{5F082321-0195-11D3-BDFB-0060B0CD5109}
9
$VERSIONGUID
2
{12943756-294D-11D3-98C2-0060B087942D}
9
$EXTNAMES
290
1
9
$PSVPSCALE
40
0.0
9
$OLESTARTUP
290
0
0
ENDSEC
0
SECTION
  2
CLASSES
0
ENDSEC
0
SECTION
2
TABLES
0
TABLE
2
VPORT
5
190
100
AcDbSymbolTable
70
2
0
VPORT
5
191
100
AcDbSymbolTableRecord
100
AcDbViewportTableRecord
2
*ACTIVE
70
0
10
0.0
20
0.0
11
1.0
21
1.0
12
2100.000
22
1485.000
13
0.0
23
0.0
14
1.0
24
1.0
15
0.0
25
0.0
16
0.0
26
0.0
36
1.0
17
0.0
27
0.0
37
0.0
40
3043.478
41
2.0
42
50.0
43
0.0
44
0.0
50
0.0
51
0.0
71
0
72
1000
73
1
74
1
75
0
76
0
77
0
78
0
0
ENDTAB
0
TABLE
2
LTYPE
5
1f4
100
AcDbSymbolTable
70
9
0
LTYPE
5
1f5
100
AcDbSymbolTableRecord
100
AcDbLinetypeTableRecord
2
BYBLOCK
70
 64
3

72
 65
73
  0
40
0.0
0
LTYPE
5
1f6
100
AcDbSymbolTableRecord
100
AcDbLinetypeTableRecord
2
BYLAYER
70
 64
3

72
 65
73
  0
40
0.0
0
LTYPE
5
1f7
100
AcDbSymbolTableRecord
100
AcDbLinetypeTableRecord
2
CONTINUOUS
70
64
3
SolidLine
72
65
73
0
40
0.0
0
LTYPE
5
1f8
100
AcDbSymbolTableRecord
100
AcDbLinetypeTableRecord
2
DOT
70
64
3
--  --  --  --  --  --  --  --     
72
65
73
2
40
3.000
49
1.000
74
0
49
-2.000
74
0
0
LTYPE
5
1f9
100
AcDbSymbolTableRecord
100
AcDbLinetypeTableRecord
2
DASHED
70
64
3
----    ----    ----    ----    
72
65
73
2
40
5.000
49
2.000
74
0
49
-3.000
74
0
0
LTYPE
5
1fa
100
AcDbSymbolTableRecord
100
AcDbLinetypeTableRecord
2
DASHED2
70
64
3
------  ------  ------  ------ 
72
65
73
2
40
10.000
49
4.000
74
0
49
-6.000
74
0
0
LTYPE
5
1fb
100
AcDbSymbolTableRecord
100
AcDbLinetypeTableRecord
2
CENTER
70
64
3
----- - ----- - ----- - ----- - 
72
65
73
4
40
10.000
49
6.000
74
0
49
-3.000
74
0
49
1.000
74
0
49
-3.000
74
0
0
LTYPE
5
1fc
100
AcDbSymbolTableRecord
100
AcDbLinetypeTableRecord
2
CENTER2
70
64
3
----------  --  ----------  -- 
72
65
73
4
40
17.000
49
12.000
74
0
49
-5.000
74
0
49
2.000
74
0
49
-5.000
74
0
0
LTYPE
5
1fd
100
AcDbSymbolTableRecord
100
AcDbLinetypeTableRecord
2
PHANTOM
70
64
3
--- - - --- - - --- - - --- - -
72
65
73
6
40
13.000
49
5.000
74
0
49
-3.000
74
0
49
1.000
74
0
49
-3.000
74
0
49
1.000
74
0
49
-3.000
74
0
0
LTYPE
5
1fe
100
AcDbSymbolTableRecord
100
AcDbLinetypeTableRecord
2
PHANTOM2
70
64
3
--------  -  -  --------  -  -
72
65
73
6
40
20.000
49
6.000
74
0
49
-5.000
74
0
49
2.000
74
0
49
-5.000
74
0
49
2.000
74
0
49
-5.000
74
0
0
LTYPE
5
1ff
100
AcDbSymbolTableRecord
100
AcDbLinetypeTableRecord
2
HIDDEN
70
64
3
-   -   -   -   -   -   -   -   
72
65
73
2
40
3.000
49
0.500
74
0
49
-2.500
74
0
0
ENDTAB
0
TABLE
2
STYLE
5
200
100
AcDbSymbolTable
70
1
0
STYLE
5
201
100
AcDbSymbolTableRecord
100
AcDbTextStyleTableRecord
2
STANDARD
70
0
40
0.0
41
1.0
50
0.0
71
0
42
0.0
3
txt.shx
4
extfont.shx
0
STYLE
5
202
100
AcDbSymbolTableRecord
100
AcDbTextStyleTableRecord
2
TATEGAKI
70
4
40
0.0
41
1.0
50
0.0
71
0
42
0.0
3
txt.shx
4
extfont.shx
0
STYLE
5
203
100
AcDbSymbolTableRecord
100
AcDbTextStyleTableRecord
2
DIM
70
0
40
0.0
41
0.75
50
0.0
71
0
42
0.0
3
txt.shx
4
extfont.shx
0
STYLE
5
204
100
AcDbSymbolTableRecord
100
AcDbTextStyleTableRecord
2
_Gothic_
70
0
40
1.0
41
1.0
50
0.0
71
0
42
10.0
3

4

1001
ACAD
1000
MS Gothic
1071
32817
0
STYLE
5
205
100
AcDbSymbolTableRecord
100
AcDbTextStyleTableRecord
2
_TateGothic_
70
4
40
0.0
41
1.0
50
0.0
71
0
42
0.0
3
@MS Gothic
4

0
ENDTAB
0
TABLE
2
VIEW
5
206
100
AcDbSymbolTable
70
0
0
ENDTAB
0
TABLE
2
UCS
5
207
100
AcDbSymbolTable
70
0
0
ENDTAB
0
TABLE
2
APPID
5
208
100
AcDbSymbolTable
70
1
0
APPID
5
209
100
AcDbSymbolTableRecord
100
AcDbRegAppTableRecord
2
ACAD
70
0
0
ENDTAB
0
TABLE
2
DIMSTYLE
5
403
330
0
100
AcDbSymbolTable
70
1
100
AcDbDimStyleTable
71
0
0
DIMSTYLE
105
404
330
402
100
AcDbSymbolTableRecord
100
AcDbDimStyleTableRecord
2
JAC_DIM
70
0
41
20.000
42
0.000
44
0.0
73
0
74
0
77
1
78
8
79
2
140
0.000
170
0
171
2
172
0
173
0
174
0
175
0
176
0
177
0
178
0
270
2
271
0
272
0
273
2
274
2
340
201
275
0
280
0
281
0
282
0
283
0
284
0
285
0
286
0
287
3
288
0
0
ENDTAB
0
TABLE
2
BLOCK_RECORD
5
405
100
AcDbSymbolTable
70
0
0
BLOCK_RECORD
5
406
100
AcDbSymbolTableRecord
100
AcDbBlockTableRecord
2
*MODEL_SPACE
0
BLOCK_RECORD
5
407
100
AcDbSymbolTableRecord
100
AcDbBlockTableRecord
2
*PAPER_SPACE
0
BLOCK_RECORD
5
408
100
AcDbSymbolTableRecord
100
AcDbBlockTableRecord
2
_JACCONVERT_
0
ENDTAB
0
TABLE
2
LAYER
5
409
100
AcDbSymbolTable
70
10
0
LAYER
5
40a
100
AcDbSymbolTableRecord
100
AcDbLayerTableRecord
2
0
70
0
62
7
6
CONTINUOUS
370
-3
390
14
0
LAYER
5
40b
100
AcDbSymbolTableRecord
100
AcDbLayerTableRecord
2
0-2DEFPOINTS
70
0
62
-7
6
CONTINUOUS
370
-3
390
14
0
LAYER
5
40c
100
AcDbSymbolTableRecord
100
AcDbLayerTableRecord
2
0-3RC
70
0
62
7
6
CONTINUOUS
370
-3
390
14
0
LAYER
5
40d
100
AcDbSymbolTableRecord
100
AcDbLayerTableRecord
2
0-4陰線
70
0
62
7
6
CONTINUOUS
370
-3
390
14
0
LAYER
5
40e
100
AcDbSymbolTableRecord
100
AcDbLayerTableRecord
2
0-5基準線
70
0
62
7
6
CONTINUOUS
370
-3
390
14
0
LAYER
5
40f
100
AcDbSymbolTableRecord
100
AcDbLayerTableRecord
2
0-6戸当り
70
0
62
7
6
CONTINUOUS
370
-3
390
14
0
LAYER
5
410
100
AcDbSymbolTableRecord
100
AcDbLayerTableRecord
2
0-7図枠
70
0
62
7
6
CONTINUOUS
370
-3
390
14
0
LAYER
5
411
100
AcDbSymbolTableRecord
100
AcDbLayerTableRecord
2
0-8寸法
70
0
62
7
6
CONTINUOUS
370
-3
390
14
0
LAYER
5
412
100
AcDbSymbolTableRecord
100
AcDbLayerTableRecord
2
0-9扉体
70
0
62
7
6
CONTINUOUS
370
-3
390
14
0
LAYER
5
413
100
AcDbSymbolTableRecord
100
AcDbLayerTableRecord
2
0-A文字
70
0
62
7
6
CONTINUOUS
370
-3
390
14
0
LAYER
5
414
100
AcDbSymbolTableRecord
100
AcDbLayerTableRecord
2
F-F_J_ADD
70
0
62
-7
6
CONTINUOUS
290
0
370
-3
390
14
0
ENDTAB
0
ENDSEC
0
SECTION
2
BLOCKS
0
BLOCK
5
415
100
AcDbEntity
67
1
8
0
100
AcDbBlockBegin
2
*MODEL_SPACE
70
0
10
0.0
20
0.0
30
0.0
3
*MODEL_SPACE
1

0
ENDBLK
5
416
100
AcDbEntity
8
0
100
AcDbBlockEnd
0
BLOCK
5
417
100
AcDbEntity
67
1
8
0
100
AcDbBlockBegin
2
*PAPER_SPACE
70
0
10
0.0
20
0.0
30
0.0
3
*PAPER_SPACE
1

0
ENDBLK
5
418
100
AcDbEntity
67
1
8
0
100
AcDbBlockEnd
0
BLOCK
5
419
100
AcDbEntity
8
0
100
AcDbBlockBegin
2
_JACCONVERT_
70
2
10
0.0
20
0.0
30
0.0
3
_JACCONVERT_
1
_JACCONVERT_
0
ATTDEF
5
41a
100
AcDbEntity
8
0
62
0
100
AcDbText
10
0.0
20
0.0
30
0.0
40
1.0
1
User:33307E08109409567083093083089083760830E50960850900C608B4808D6408F6408F4F08E
100
AcDbAttributeDefinition
3

2
USER
70
8
0
ATTDEF
5
41b
100
AcDbEntity
8
0
62
0
100
AcDbText
10
0.0
20
2.0
30
0.0
40
1.0
1
Date:24/01/30 10:55
100
AcDbAttributeDefinition
3

2
REVDATE
70
8
0
ATTDEF
5
41c
100
AcDbEntity
8
0
62
0
100
AcDbText
10
0.0
20
4.0
30
0.0
40
1.0
1
File:_MFR-S0707K.dxf
100
AcDbAttributeDefinition
3

2
FNAME
70
8
0
ATTDEF
5
41d
100
AcDbEntity
8
0
62
0
100
AcDbText
10
0.0
20
6.0
30
0.0
40
1.0
1
JacConvert Version3.13p copyright (c) 2001-2021 K.Nakahara
100
AcDbAttributeDefinition
3

2
VER
70
8
0
ENDBLK
5
41e
100
AcDbEntity
67
1
8
0
100
AcDbBlockEnd
0
ENDSEC
0
SECTION
2
ENTITIES
0
TEXT
5
41f
100
AcDbEntity
8
0-7図枠
62
7
370
-3
100
AcDbText
10
3035.686
20
2041.407
30
0.0
40
33.660
41
0.856
50
0.000
1
設計水深
72
1
11
3114.086
21
2055.267
31
0.0
100
AcDbText
73
2
0
LINE
5
420
100
AcDbEntity
8
F-F_J_ADD
6
HIDDEN
62
109
100
AcDbLine
10
1953.719000000000
20
1500.188000000000
30
0.0
11
1953.719000000000
21
1435.188000000000
31
0.0
0
LINE
5
421
100
AcDbEntity
8
F-F_J_ADD
6
HIDDEN
62
109
100
AcDbLine
10
1953.719000000000
20
1435.188000000000
30
0.0
11
1969.719000000000
21
1435.188000000000
31
0.0
0
LINE
5
422
100
AcDbEntity
8
F-F_J_ADD
6
HIDDEN
62
109
100
AcDbLine
10
1969.719000000000
20
1435.188000000000
30
0.0
11
1969.719000000000
21
1500.188000000000
31
0.0
0
LINE
5
423
100
AcDbEntity
8
F-F_J_ADD
6
HIDDEN
62
109
100
AcDbLine
10
1969.719000000000
20
1500.188000000000
30
0.0
11
1953.719000000000
21
1500.188000000000
31
0.0
0
LINE
5
424
100
AcDbEntity
8
F-F_J_ADD
6
HIDDEN
62
109
100
AcDbLine
10
1953.719000000000
20
1485.188000000000
30
0.0
11
1969.719000000000
21
1485.188000000000
31
0.0
0
LINE
5
425
100
AcDbEntity
8
0-3RC
6
CONTINUOUS
62
6
100
AcDbLine
10
2587.095000000000
20
1635.187000000000
30
0.0
11
2587.095000000000
21
1098.928000000000
31
0.0
0
POLYLINE
5
426
100
AcDbEntity
8
0-4陰線
6
DOT
62
109
100
AcDb2dPolyline
66
1
10
0.0
20
0.0
30
0.0
70
0
0
VERTEX
5
427
100
AcDbEntity
8
0-4陰線
6
DOT
62
109
100
AcDbVertex
100
AcDb2dVertex
10
0.000000000000
20
2970.000000000000
30
0.0
0
VERTEX
5
428
100
AcDbEntity
8
0-4陰線
6
DOT
62
109
100
AcDbVertex
100
AcDb2dVertex
10
4200.001000000000
20
2970.000000000000
30
0.0
0
VERTEX
5
429
100
AcDbEntity
8
0-4陰線
6
DOT
62
109
100
AcDbVertex
100
AcDb2dVertex
10
4200.001000000000
20
0.000000000000
30
0.0
0
SEQEND
5
42a
100
AcDbEntity
8
0-4陰線
0
LINE
5
42b
100
AcDbEntity
8
0-4陰線
6
DOT
62
109
100
AcDbLine
10
0.000000000000
20
0.000000000000
30
0.0
11
4200.001000000000
21
0.000000000000
31
0.0
0
LINE
5
42c
100
AcDbEntity
8
0-4陰線
6
DOT
62
109
100
AcDbLine
10
0.000000000000
20
2970.000000000000
30
0.0
11
0.000000000000
21
0.000000000000
31
0.0
0
LINE
5
42d
100
AcDbEntity
8
0-7図枠
6
CONTINUOUS
62
7
100
AcDbLine
10
3105.001000000000
20
2695.000000000000
30
0.0
11
4050.001000000000
21
2695.000000000000
31
0.0
0
LINE
5
42e
100
AcDbEntity
8
0-7図枠
6
CONTINUOUS
62
7
100
AcDbLine
10
3105.001000000000
20
2770.000000000000
30
0.0
11
3105.001000000000
21
2695.000000000000
31
0.0
0
LINE
5
42f
100
AcDbEntity
8
0-7図枠
6
CONTINUOUS
62
7
100
AcDbLine
10
3655.001000000000
20
2770.000000000000
30
0.0
11
3655.001000000000
21
2695.000000000000
31
0.0
0
LINE
5
430
100
AcDbEntity
8
0-7図枠
6
CONTINUOUS
62
7
100
AcDbLine
10
3855.001000000000
20
2770.000000000000
30
0.0
11
3855.001000000000
21
2695.000000000000
31
0.0
0
LINE
5
431
100
AcDbEntity
8
0-7図枠
6
CONTINUOUS
62
7
100
AcDbLine
10
3215.001000000000
20
2770.000000000000
30
0.0
11
3215.001000000000
21
2695.000000000000
31
0.0
0
LINE
5
432
100
AcDbEntity
8
0-8寸法
6
CONTINUOUS
62
4
100
AcDbLine
10
2587.095000000000
20
1735.188000000000
30
0.0
11
2606.413000000000
21
1740.364000000000
31
0.0
0
LINE
5
433
100
AcDbEntity
8
0-8寸法
6
CONTINUOUS
62
4
100
AcDbLine
10
2587.095000000000
20
1735.188000000000
30
0.0
11
2606.413000000000
21
1730.011000000000
31
0.0
0
LINE
5
434
100
AcDbEntity
8
0-8寸法
6
CONTINUOUS
62
4
100
AcDbLine
10
2674.846000000000
20
1735.188000000000
30
0.0
11
2575.095000000000
21
1735.188000000000
31
0.0
0
LINE
5
435
100
AcDbEntity
8
0-8寸法
6
CONTINUOUS
62
4
100
AcDbLine
10
2575.095000000000
20
1541.001000000000
30
0.0
11
2575.095000000000
21
1745.188000000000
31
0.0
0
LINE
5
436
100
AcDbEntity
8
0-8寸法
6
CONTINUOUS
62
4
100
AcDbLine
10
2587.095000000000
20
1643.013000000000
30
0.0
11
2587.095000000000
21
1745.188000000000
31
0.0
0
LINE
5
437
100
AcDbEntity
8
0-3RC
6
CONTINUOUS
62
6
100
AcDbLine
10
743.663000000000
20
2354.647000000000
30
0.0
11
1843.663000000000
21
2354.647000000000
31
0.0
0
LINE
5
438
100
AcDbEntity
8
0-5基準線
6
CENTER2
62
7
100
AcDbLine
10
1293.663000000000
20
1585.188000000000
30
0.0
11
1293.663000000000
21
553.043000000000
31
0.0
0
LINE
5
439
100
AcDbEntity
8
0-8寸法
6
CONTINUOUS
62
4
100
AcDbLine
10
2575.095000000000
20
1735.188000000000
30
0.0
11
2418.339000000000
21
1735.188000000000
31
0.0
0
LINE
5
43a
100
AcDbEntity
8
0-8寸法
6
CONTINUOUS
62
4
100
AcDbLine
10
2533.595000000000
20
1735.188000000000
30
0.0
11
2514.276000000000
21
1740.364000000000
31
0.0
0
LINE
5
43b
100
AcDbEntity
8
0-8寸法
6
CONTINUOUS
62
4
100
AcDbLine
10
2533.595000000000
20
1735.188000000000
30
0.0
11
2514.276000000000
21
1730.011000000000
31
0.0
0
LINE
5
43c
100
AcDbEntity
8
0-8寸法
6
CONTINUOUS
62
4
100
AcDbLine
10
2533.595000000000
20
1522.715000000000
30
0.0
11
2533.595000000000
21
1745.188000000000
31
0.0
0
LINE
5
43d
100
AcDbEntity
8
0-A文字
6
CONTINUOUS
62
4
100
AcDbLine
10
3081.988000000000
20
662.950000000000
30
0.0
11
3973.087000000000
21
662.950000000000
31
0.0
0
POLYLINE
5
43e
100
AcDbEntity
  8
0-8寸法
6
CONTINUOUS
62
4
100
AcDb2dPolyline
66
1
10
0
20
0
70
1
40
4.000
41
4.000
0
VERTEX
5
43f
100
AcDbEntity
  8
0-8寸法
6
CONTINUOUS
62
4
100
AcDbVertex
100
AcDb2dVertex
10
2573.095
20
1735.187
30
0.0
42
1.000
0
VERTEX
5
440
100
AcDbEntity
  8
0-8寸法
6
CONTINUOUS
62
4
100
AcDbVertex
100
AcDb2dVertex
10
2577.095
20
1735.187
30
0.0
42
1.000
0
SEQEND
5
441
100
AcDbEntity
  8
0-8寸法
0
TEXT
5
442
100
AcDbEntity
8
0-7図枠
62
7
370
-3
100
AcDbText
10
3128.900
20
2720.239
30
0.0
40
29.405
1
記号
41
0.856
50
0.000
100
AcDbText
0
TEXT
5
443
100
AcDbEntity
8
0-7図枠
62
7
370
-3
100
AcDbText
10
3281.400
20
2720.239
30
0.0
40
29.405
1
修　　　　　　　正
41
0.856
50
0.000
100
AcDbText
0
TEXT
5
444
100
AcDbEntity
8
0-7図枠
62
7
370
-3
100
AcDbText
10
3688.900
20
2720.239
30
0.0
40
29.405
1
日　　付
41
0.856
50
0.000
100
AcDbText
0
TEXT
5
445
100
AcDbEntity
8
0-7図枠
62
7
370
-3
100
AcDbText
10
3886.400
20
2720.239
30
0.0
40
29.405
1
担　　当
41
0.856
50
0.000
100
AcDbText
0
TEXT
5
446
100
AcDbEntity
8
0-7図枠
62
7
370
-3
100
AcDbText
10
3596.798
20
437.595
30
0.0
40
37.807
1
700 Bo x 700 Ho
41
0.616
50
0.000
100
AcDbText
0
TEXT
5
447
100
AcDbEntity
8
0-A文字
62
7
370
-3
100
AcDbText
10
3098.790
20
676.315
30
0.0
40
29.405
1
注記　１．表面処理：酸洗後、水洗いと致します。
41
0.856
50
0.000
100
AcDbText
0
TEXT
5
448
100
AcDbEntity
8
0-7図枠
62
7
370
-3
100
AcDbText
10
3566.798
20
180.189
30
0.0
40
37.807
1
Ｋ－２２５７
41
0.856
50
0.000
100
AcDbText
0
TEXT
5
449
100
AcDbEntity
8
0-7図枠
62
7
370
-3
100
AcDbText
10
3714.464
20
500.615
30
0.0
40
29.405
1
MFR-S0707K
41
0.540
50
0.000
100
AcDbText
0
ELLIPSE
  5
44a
100
AcDbEntity
8
0-6戸当り
6
CONTINUOUS
62
2
100
AcDbEllipse
10
2949.995000000000
20
189.029000000000
30
0.0
11
30.000000000000
21
0.000000000000
31
0.0
210
0.0
220
0.0
230
1.0
40
0.833300000000
41
0.000000000000
42
6.283185307180
0
ELLIPSE
  5
44b
100
AcDbEntity
8
0-6戸当り
6
CONTINUOUS
62
2
100
AcDbEllipse
10
2949.995000000000
20
189.029000000000
30
0.0
11
30.000000000000
21
0.000000000000
31
0.0
210
0.0
220
0.0
230
1.0
40
0.833300000000
41
0.000000000000
42
6.283185307180
0
LINE
5
44c
100
AcDbEntity
8
0-6戸当り
6
CONTINUOUS
62
2
100
AcDbLine
10
3625.002000000000
20
490.000000000000
30
0.0
11
4020.002000000000
21
490.000000000000
31
0.0
0
LINE
5
44d
100
AcDbEntity
8
0-6戸当り
6
CONTINUOUS
62
2
100
AcDbLine
10
2905.002000000000
20
540.000000000000
30
0.0
11
2905.002000000000
21
150.000000000000
31
0.0
0
LINE
5
44e
100
AcDbEntity
8
0-6戸当り
6
CONTINUOUS
62
2
100
AcDbLine
10
2905.002000000000
20
540.000000000000
30
0.0
11
4050.001000000000
21
540.000000000000
31
0.0
0
LINE
5
44f
100
AcDbEntity
8
0-6戸当り
6
CONTINUOUS
62
2
100
AcDbLine
10
2905.002000000000
20
240.000000000000
30
0.0
11
4050.001000000000
21
240.000000000000
31
0.0
0
LINE
5
450
100
AcDbEntity
8
0-6戸当り
6
CONTINUOUS
62
2
100
AcDbLine
10
3475.002000000000
20
540.000000000000
30
0.0
11
3475.002000000000
21
150.000000000000
31
0.0
0
LINE
5
451
100
AcDbEntity
8
0-6戸当り
6
CONTINUOUS
62
2
100
AcDbLine
10
3950.002000000000
20
240.000000000000
30
0.0
11
3950.002000000000
21
150.000000000000
31
0.0
0
LINE
5
452
100
AcDbEntity
8
0-6戸当り
6
CONTINUOUS
62
2
100
AcDbLine
10
3635.002000000000
20
350.000000000000
30
0.0
11
3635.002000000000
21
240.000000000000
31
0.0
0
LINE
5
453
100
AcDbEntity
8
0-6戸当り
6
CONTINUOUS
62
2
100
AcDbLine
10
3685.002000000000
20
350.000000000000
30
0.0
11
3685.002000000000
21
240.000000000000
31
0.0
0
LINE
5
454
100
AcDbEntity
8
0-6戸当り
6
CONTINUOUS
62
2
100
AcDbLine
10
3840.001000000000
20
350.000000000000
30
0.0
11
3840.001000000000
21
240.000000000000
31
0.0
0
LINE
5
455
100
AcDbEntity
8
0-6戸当り
6
CONTINUOUS
62
2
100
AcDbLine
10
3890.002000000000
20
350.000000000000
30
0.0
11
3890.002000000000
21
240.000000000000
31
0.0
0
LINE
5
456
100
AcDbEntity
8
0-6戸当り
6
CONTINUOUS
62
2
100
AcDbLine
10
3415.002000000000
20
350.000000000000
30
0.0
11
4050.001000000000
21
350.000000000000
31
0.0
0
LINE
5
457
100
AcDbEntity
8
0-6戸当り
6
CONTINUOUS
62
2
100
AcDbLine
10
2905.002000000000
20
330.000000000000
30
0.0
11
3415.002000000000
21
330.000000000000
31
0.0
0
LINE
5
458
100
AcDbEntity
8
0-6戸当り
6
CONTINUOUS
62
2
100
AcDbLine
10
2905.002000000000
20
420.000000000000
30
0.0
11
3415.002000000000
21
420.000000000000
31
0.0
0
LINE
5
459
100
AcDbEntity
8
0-6戸当り
6
CONTINUOUS
62
2
100
AcDbLine
10
2960.001000000000
20
540.000000000000
30
0.0
11
2960.001000000000
21
240.000000000000
31
0.0
0
LINE
5
45a
100
AcDbEntity
8
0-6戸当り
6
CONTINUOUS
62
2
100
AcDbLine
10
3215.002000000000
20
420.000000000000
30
0.0
11
3215.002000000000
21
240.000000000000
31
0.0
0
LINE
5
45b
100
AcDbEntity
8
0-6戸当り
6
CONTINUOUS
62
2
100
AcDbLine
10
3160.002000000000
20
420.000000000000
30
0.0
11
3160.002000000000
21
240.000000000000
31
0.0
0
LINE
5
45c
100
AcDbEntity
8
0-6戸当り
6
CONTINUOUS
62
2
100
AcDbLine
10
2928.410000000000
20
189.944000000000
30
0.0
11
2961.059000000000
21
171.094000000000
31
0.0
0
LINE
5
45d
100
AcDbEntity
8
0-6戸当り
6
CONTINUOUS
62
2
100
AcDbLine
10
2938.655000000000
20
192.689000000000
30
0.0
11
2968.415000000000
21
175.507000000000
31
0.0
0
LINE
5
45e
100
AcDbEntity
8
0-6戸当り
6
CONTINUOUS
62
2
100
AcDbLine
10
2948.900000000000
20
195.434000000000
30
0.0
11
2973.128000000000
21
181.446000000000
31
0.0
0
LINE
5
45f
100
AcDbEntity
8
0-6戸当り
6
CONTINUOUS
62
2
100
AcDbLine
10
2931.239000000000
20
190.702000000000
30
0.0
11
2924.995000000000
21
189.029000000000
31
0.0
0
LINE
5
460
100
AcDbEntity
8
0-6戸当り
6
CONTINUOUS
62
2
100
AcDbLine
10
2938.827000000000
20
189.703000000000
30
0.0
11
2966.279000000000
21
173.854000000000
31
0.0
0
LINE
5
461
100
AcDbEntity
8
0-6戸当り
6
CONTINUOUS
62
2
100
AcDbLine
10
2949.072000000000
20
192.448000000000
30
0.0
11
2971.840000000000
21
179.303000000000
31
0.0
0
LINE
5
462
100
AcDbEntity
8
0-6戸当り
6
CONTINUOUS
62
2
100
AcDbLine
10
2959.318000000000
20
195.193000000000
30
0.0
11
2974.757000000000
21
186.279000000000
31
0.0
0
LINE
5
463
100
AcDbEntity
8
0-6戸当り
6
CONTINUOUS
62
2
100
AcDbLine
10
2941.484000000000
20
193.447000000000
30
0.0
11
2933.711000000000
21
191.364000000000
31
0.0
0
LINE
5
464
100
AcDbEntity
8
0-6戸当り
6
CONTINUOUS
62
2
100
AcDbLine
10
2951.729000000000
20
196.192000000000
30
0.0
11
2944.184000000000
21
194.171000000000
31
0.0
0
LINE
5
465
100
AcDbEntity
8
0-6戸当り
6
CONTINUOUS
62
2
100
AcDbLine
10
3968.445000000000
20
168.300000000000
30
0.0
11
3999.411000000000
21
221.934000000000
31
0.0
0
LINE
5
466
100
AcDbEntity
8
0-6戸当り
6
CONTINUOUS
62
2
100
AcDbLine
10
4030.377000000000
20
168.300000000000
30
0.0
11
3999.411000000000
21
221.934000000000
31
0.0
0
LINE
5
467
100
AcDbEntity
8
0-6戸当り
6
CONTINUOUS
62
2
100
AcDbLine
10
3968.445000000000
20
168.300000000000
30
0.0
11
4030.377000000000
21
168.300000000000
31
0.0
0
ARC
5
468
100
AcDbEntity
8
0-6戸当り
6
CONTINUOUS
62
2
100
AcDbCircle
10
2933.827000000000
20
181.043000000000
30
0.0
40
10.000000000000
100
AcDbArc
50
60.000000000000
51
105.000000000000
0
ARC
5
469
100
AcDbEntity
8
0-6戸当り
6
CONTINUOUS
62
2
100
AcDbCircle
10
2944.072000000000
20
183.788000000000
30
0.0
40
10.000000000000
100
AcDbArc
50
60.000000000000
51
105.000000000000
0
ARC
5
46a
100
AcDbEntity
8
0-6戸当り
6
CONTINUOUS
62
2
100
AcDbCircle
10
2954.318000000000
20
186.533000000000
30
0.0
40
10.000000000000
100
AcDbArc
50
60.000000000000
51
105.000000000000
0
ELLIPSE
  5
46b
100
AcDbEntity
8
0-6戸当り
6
CONTINUOUS
62
2
100
AcDbEllipse
10
2949.995000000000
20
189.029000000000
30
0.0
11
25.000000000000
21
0.000000000000
31
0.0
210
0.0
220
0.0
230
1.0
40
0.800000000000
41
0.270792616483
42
6.145261525885
0
TEXT
5
46c
100
AcDbEntity
8
0-6戸当り
62
7
370
-3
100
AcDbText
10
2932.191
20
513.825
30
0.0
40
22.721
1
客先
41
0.999
50
0.000
  7
TATEGAKI
100
AcDbText
0
TEXT
5
46d
100
AcDbEntity
8
0-6戸当り
62
7
370
-3
100
AcDbText
10
3629.248
20
503.175
30
0.0
40
29.405
1
型式
41
0.856
50
0.000
100
AcDbText
0
TEXT
5
46e
100
AcDbEntity
8
0-6戸当り
62
7
370
-3
100
AcDbText
10
3444.425
20
496.325
30
0.0
40
22.721
1
名　称
41
0.999
50
0.000
  7
TATEGAKI
100
AcDbText
0
TEXT
5
46f
100
AcDbEntity
8
0-6戸当り
62
7
370
-3
100
AcDbText
10
3124.101
20
466.140
30
0.0
40
33.660
41
0.963
50
0.000
1
標準図
72
1
11
3190.001
21
482.500
31
0.0
100
AcDbText
73
2
0
TEXT
5
470
100
AcDbEntity
8
0-6戸当り
62
7
370
-3
100
AcDbText
10
2931.924
20
408.825
30
0.0
40
22.721
1
材質
41
0.999
50
0.000
  7
TATEGAKI
100
AcDbText
0
TEXT
5
471
100
AcDbEntity
8
0-6戸当り
62
7
370
-3
100
AcDbText
10
3186.925
20
408.825
30
0.0
40
22.721
1
数量
41
0.999
50
0.000
  7
TATEGAKI
100
AcDbText
0
MTEXT
5
472
100
AcDbEntity
8
0-6戸当り
62
7
370
-3
100
AcDbMText
10
3764.299
20
406.981
30
0.0
40
35.707
41
0.000
71
5
72
1
1
\W0.972;{\W0.700;ｽﾃﾝﾚｽ}製{\W0.700;ﾌﾗｯﾌﾟｹﾞ-ﾄ(}壁付{\W0.700;)}
7
STANDARD
11
1.00000
21
0.00000
31
0.0
0
TEXT
5
473
100
AcDbEntity
8
0-6戸当り
62
7
370
-3
100
AcDbText
10
3019.102
20
361.140
30
0.0
40
33.660
41
0.963
50
0.000
1
図示
72
1
11
3062.502
21
377.500
31
0.0
100
AcDbText
73
2
0
TEXT
5
474
100
AcDbEntity
8
0-6戸当り
62
7
370
-3
100
AcDbText
10
3274.102
20
361.140
30
0.0
40
33.660
41
0.963
50
0.000
1
１式
72
1
11
3317.502
21
377.500
31
0.0
100
AcDbText
73
2
0
TEXT
5
475
100
AcDbEntity
8
0-6戸当り
62
7
370
-3
100
AcDbText
10
3444.425
20
328.825
30
0.0
40
22.721
1
承認
41
0.999
50
0.000
  7
TATEGAKI
100
AcDbText
0
TEXT
5
476
100
AcDbEntity
8
0-6戸当り
62
7
370
-3
100
AcDbText
10
3659.425
20
328.825
30
0.0
40
22.721
1
検図
41
0.999
50
0.000
  7
TATEGAKI
100
AcDbText
0
TEXT
5
477
100
AcDbEntity
8
0-6戸当り
62
7
370
-3
100
AcDbText
10
3864.424
20
328.825
30
0.0
40
22.721
1
担当
41
0.999
50
0.000
  7
TATEGAKI
100
AcDbText
0
TEXT
5
478
100
AcDbEntity
8
0-6戸当り
62
7
370
-3
100
AcDbText
10
2931.924
20
318.825
30
0.0
40
22.721
1
尺度
41
0.999
50
0.000
  7
TATEGAKI
100
AcDbText
0
TEXT
5
479
100
AcDbEntity
8
0-6戸当り
62
7
370
-3
100
AcDbText
10
3186.925
20
318.825
30
0.0
40
22.721
1
日付
41
0.999
50
0.000
  7
TATEGAKI
100
AcDbText
0
TEXT
5
47a
100
AcDbEntity
8
0-6戸当り
62
7
370
-3
100
AcDbText
10
3514.102
20
281.140
30
0.0
40
33.660
41
0.963
50
0.000
1
熊崎
72
1
11
3557.502
21
297.500
31
0.0
100
AcDbText
73
2
0
TEXT
5
47b
100
AcDbEntity
8
0-6戸当り
62
7
370
-3
100
AcDbText
10
3721.602
20
281.140
30
0.0
40
33.660
41
0.963
50
0.000
1
井福
72
1
11
3765.002
21
297.500
31
0.0
100
AcDbText
73
2
0
TEXT
5
47c
100
AcDbEntity
8
0-6戸当り
62
7
370
-3
100
AcDbText
10
3929.102
20
281.140
30
0.0
40
33.660
41
0.963
50
0.000
1
平川
72
1
11
3972.502
21
297.500
31
0.0
100
AcDbText
73
2
0
TEXT
5
47d
100
AcDbEntity
8
0-6戸当り
62
7
370
-3
100
AcDbText
10
3017.852
20
271.140
30
0.0
40
33.660
41
0.770
50
0.000
1
1/10
72
1
11
3061.252
21
287.500
31
0.0
100
AcDbText
73
2
0
LINE
5
47e
100
AcDbEntity
8
F-F_J_ADD
6
HIDDEN
62
109
100
AcDbLine
10
2905.002000000000
20
480.000000000000
30
0.0
11
3415.002000000000
21
480.000000000000
31
0.0
0
LINE
5
47f
100
AcDbEntity
8
F-F_J_ADD
6
HIDDEN
62
109
100
AcDbLine
10
2905.002000000000
20
375.000000000000
30
0.0
11
3415.002000000000
21
375.000000000000
31
0.0
0
LINE
5
480
100
AcDbEntity
8
F-F_J_ADD
6
HIDDEN
62
109
100
AcDbLine
10
3415.002000000000
20
285.000000000000
30
0.0
11
2905.002000000000
21
285.000000000000
31
0.0
0
LINE
5
481
100
AcDbEntity
8
F-F_J_ADD
6
HIDDEN
62
109
100
AcDbLine
10
2932.501500000000
20
540.000000000000
30
0.0
11
2932.501500000000
21
240.000000000000
31
0.0
0
LINE
5
482
100
AcDbEntity
8
F-F_J_ADD
6
HIDDEN
62
109
100
AcDbLine
10
3060.001500000000
20
420.000000000000
30
0.0
11
3060.001500000000
21
240.000000000000
31
0.0
0
LINE
5
483
100
AcDbEntity
8
F-F_J_ADD
6
HIDDEN
62
109
100
AcDbLine
10
3187.502000000000
20
420.000000000000
30
0.0
11
3187.502000000000
21
240.000000000000
31
0.0
0
LINE
5
484
100
AcDbEntity
8
F-F_J_ADD
6
HIDDEN
62
109
100
AcDbLine
10
3315.002000000000
20
240.000000000000
30
0.0
11
3315.002000000000
21
420.000000000000
31
0.0
0
LINE
5
485
100
AcDbEntity
8
F-F_J_ADD
6
HIDDEN
62
109
100
AcDbLine
10
3187.501500000000
20
540.000000000000
30
0.0
11
3187.501500000000
21
420.000000000000
31
0.0
0
LINE
5
486
100
AcDbEntity
8
F-F_J_ADD
6
HIDDEN
62
109
100
AcDbLine
10
3160.002000000000
20
240.000000000000
30
0.0
11
3160.002000000000
21
150.000000000000
31
0.0
0
LINE
5
487
100
AcDbEntity
8
F-F_J_ADD
6
HIDDEN
62
109
100
AcDbLine
10
3445.002000000000
20
540.000000000000
30
0.0
11
3445.002000000000
21
150.000000000000
31
0.0
0
LINE
5
488
100
AcDbEntity
8
F-F_J_ADD
6
HIDDEN
62
109
100
AcDbLine
10
3762.501500000000
20
540.000000000000
30
0.0
11
3762.501500000000
21
350.000000000000
31
0.0
0
LINE
5
489
100
AcDbEntity
8
F-F_J_ADD
6
HIDDEN
62
109
100
AcDbLine
10
3415.002000000000
20
445.000000000000
30
0.0
11
3475.002000000000
21
445.000000000000
31
0.0
0
LINE
5
48a
100
AcDbEntity
8
F-F_J_ADD
6
HIDDEN
62
109
100
AcDbLine
10
3415.002000000000
20
295.000000000000
30
0.0
11
4050.001000000000
21
295.000000000000
31
0.0
0
LINE
5
48b
100
AcDbEntity
8
F-F_J_ADD
6
HIDDEN
62
109
100
AcDbLine
10
3555.002000000000
20
350.000000000000
30
0.0
11
3555.002000000000
21
240.000000000000
31
0.0
0
LINE
5
48c
100
AcDbEntity
8
F-F_J_ADD
6
HIDDEN
62
109
100
AcDbLine
10
3660.002000000000
20
350.000000000000
30
0.0
11
3660.002000000000
21
240.000000000000
31
0.0
0
LINE
5
48d
100
AcDbEntity
8
F-F_J_ADD
6
HIDDEN
62
109
100
AcDbLine
10
3762.501500000000
20
350.000000000000
30
0.0
11
3762.501500000000
21
240.000000000000
31
0.0
0
LINE
5
48e
100
AcDbEntity
8
F-F_J_ADD
6
HIDDEN
62
109
100
AcDbLine
10
3865.001500000000
20
350.000000000000
30
0.0
11
3865.001500000000
21
240.000000000000
31
0.0
0
LINE
5
48f
100
AcDbEntity
8
F-F_J_ADD
6
HIDDEN
62
109
100
AcDbLine
10
3970.001500000000
20
350.000000000000
30
0.0
11
3970.001500000000
21
240.000000000000
31
0.0
0
LINE
5
490
100
AcDbEntity
8
F-F_J_ADD
6
HIDDEN
62
109
100
AcDbLine
10
3712.502000000000
20
240.000000000000
30
0.0
11
3712.502000000000
21
150.000000000000
31
0.0
0
LINE
5
491
100
AcDbEntity
8
F-F_J_ADD
6
HIDDEN
62
109
100
AcDbLine
10
4000.001500000000
20
150.000000000000
30
0.0
11
4000.001500000000
21
240.000000000000
31
0.0
0
LINE
5
492
100
AcDbEntity
8
F-F_J_ADD
6
HIDDEN
62
109
100
AcDbLine
10
2905.002000000000
20
195.000000000000
30
0.0
11
4050.001000000000
21
195.000000000000
31
0.0
0
LINE
5
493
100
AcDbEntity
8
F-F_J_ADD
6
HIDDEN
62
109
100
AcDbLine
10
3475.002000000000
20
512.857142857143
30
0.0
11
4050.001000000000
21
512.857142857143
31
0.0
0
LINE
5
494
100
AcDbEntity
8
F-F_J_ADD
6
HIDDEN
62
109
100
AcDbLine
10
3475.002000000000
20
485.714285714286
30
0.0
11
4050.001000000000
21
485.714285714286
31
0.0
0
LINE
5
495
100
AcDbEntity
8
F-F_J_ADD
6
HIDDEN
62
109
100
AcDbLine
10
3475.002000000000
20
458.571428571429
30
0.0
11
4050.001000000000
21
458.571428571429
31
0.0
0
LINE
5
496
100
AcDbEntity
8
F-F_J_ADD
6
HIDDEN
62
109
100
AcDbLine
10
3475.002000000000
20
431.428571428572
30
0.0
11
4050.001000000000
21
431.428571428572
31
0.0
0
LINE
5
497
100
AcDbEntity
8
F-F_J_ADD
6
HIDDEN
62
109
100
AcDbLine
10
3475.002000000000
20
404.285714285715
30
0.0
11
4050.001000000000
21
404.285714285715
31
0.0
0
LINE
5
498
100
AcDbEntity
8
F-F_J_ADD
6
HIDDEN
62
109
100
AcDbLine
10
3475.002000000000
20
377.142857142858
30
0.0
11
4050.001000000000
21
377.142857142858
31
0.0
0
TEXT
5
499
100
AcDbEntity
8
0-6戸当り
62
7
370
-3
100
AcDbText
10
3444.425
20
228.825
30
0.0
40
22.721
1
図番
41
0.999
50
0.000
  7
TATEGAKI
100
AcDbText
0
LINE
5
49a
100
AcDbEntity
8
0-6戸当り
6
CONTINUOUS
62
2
100
AcDbLine
10
3415.002000000000
20
540.000000000000
30
0.0
11
3415.002000000000
21
150.000000000000
31
0.0
0
TEXT
5
49b
100
AcDbEntity
8
0-6戸当り
62
7
370
-3
100
AcDbText
10
2998.957
20
180.639
30
0.0
40
37.807
1
三重重工業株式会社
41
0.856
50
0.000
100
AcDbText
0
POLYLINE
5
49c
100
AcDbEntity
8
0-7図枠
6
CONTINUOUS
62
  2
100
AcDb2dPolyline
66
1
10
0.0
20
0.0
30
0.0
70
0
0
VERTEX
5
49d
100
AcDbEntity
8
0-7図枠
6
CONTINUOUS
62
  2
100
AcDbVertex
100
AcDb2dVertex
10
4050.001000000000
20
2770.000000000000
30
0.0
0
VERTEX
5
49e
100
AcDbEntity
8
0-7図枠
6
CONTINUOUS
62
  2
100
AcDbVertex
100
AcDb2dVertex
10
250.000000000000
20
2770.000000000000
30
0.0
0
VERTEX
5
49f
100
AcDbEntity
8
0-7図枠
6
CONTINUOUS
62
  2
100
AcDbVertex
100
AcDb2dVertex
10
250.000000000000
20
150.000000000000
30
0.0
0
SEQEND
5
4a0
100
AcDbEntity
8
0-7図枠
0
LINE
5
4a1
100
AcDbEntity
8
0-7図枠
6
CONTINUOUS
62
2
100
AcDbLine
10
4050.001000000000
20
150.000000000000
30
0.0
11
250.000000000000
21
150.000000000000
31
0.0
0
LINE
5
4a2
100
AcDbEntity
8
0-7図枠
6
CONTINUOUS
62
2
100
AcDbLine
10
4050.001000000000
20
2770.000000000000
30
0.0
11
4050.001000000000
21
150.000000000000
31
0.0
0
CIRCLE
5
4a3
100
AcDbEntity
8
0-6戸当り
6
CONTINUOUS
62
7
100
AcDbCircle
10
978.663000000000
20
1515.188000000000
30
0.0
40
9.500000000000
0
CIRCLE
5
4a4
100
AcDbEntity
8
0-6戸当り
6
CONTINUOUS
62
7
100
AcDbCircle
10
978.663000000000
20
1515.188000000000
30
0.0
40
9.500000000000
0
POLYLINE
5
4a5
100
AcDbEntity
  8
0-8寸法
6
CONTINUOUS
62
4
100
AcDb2dPolyline
66
1
10
0
20
0
70
1
40
4.000
41
4.000
0
VERTEX
5
4a6
100
AcDbEntity
  8
0-8寸法
6
CONTINUOUS
62
4
100
AcDbVertex
100
AcDb2dVertex
10
1675.700
20
2327.688
30
0.0
42
1.000
0
VERTEX
5
4a7
100
AcDbEntity
  8
0-8寸法
6
CONTINUOUS
62
4
100
AcDbVertex
100
AcDb2dVertex
10
1679.700
20
2327.688
30
0.0
42
1.000
0
SEQEND
5
4a8
100
AcDbEntity
  8
0-8寸法
0
POLYLINE
5
4a9
100
AcDbEntity
  8
0-8寸法
6
CONTINUOUS
62
4
100
AcDb2dPolyline
66
1
10
0
20
0
70
1
40
4.000
41
4.000
0
VERTEX
5
4aa
100
AcDbEntity
  8
0-8寸法
6
CONTINUOUS
62
4
100
AcDbVertex
100
AcDb2dVertex
10
1675.700
20
2327.688
30
0.0
42
1.000
0
VERTEX
5
4ab
100
AcDbEntity
  8
0-8寸法
6
CONTINUOUS
62
4
100
AcDbVertex
100
AcDb2dVertex
10
1679.700
20
2327.688
30
0.0
42
1.000
0
SEQEND
5
4ac
100
AcDbEntity
  8
0-8寸法
0
LINE
5
4ad
100
AcDbEntity
8
0-6戸当り
6
CONTINUOUS
62
7
100
AcDbLine
10
988.163000000000
20
1520.672000000000
30
0.0
11
978.663000000000
21
1526.157000000000
31
0.0
0
LINE
5
4ae
100
AcDbEntity
8
0-6戸当り
6
CONTINUOUS
62
7
100
AcDbLine
10
988.163000000000
20
1520.672000000000
30
0.0
11
988.163000000000
21
1509.703000000000
31
0.0
0
LINE
5
4af
100
AcDbEntity
8
0-6戸当り
6
CONTINUOUS
62
7
100
AcDbLine
10
978.663000000000
20
1504.218000000000
30
0.0
11
988.163000000000
21
1509.703000000000
31
0.0
0
POLYLINE
5
4b0
100
AcDbEntity
8
0-6戸当り
6
CONTINUOUS
62
  7
100
AcDb2dPolyline
66
1
10
0.0
20
0.0
30
0.0
70
0
0
VERTEX
5
4b1
100
AcDbEntity
8
0-6戸当り
6
CONTINUOUS
62
  7
100
AcDbVertex
100
AcDb2dVertex
10
978.663000000000
20
1504.218000000000
30
0.0
0
VERTEX
5
4b2
100
AcDbEntity
8
0-6戸当り
6
CONTINUOUS
62
  7
100
AcDbVertex
100
AcDb2dVertex
10
969.163000000000
20
1509.703000000000
30
0.0
0
VERTEX
5
4b3
100
AcDbEntity
8
0-6戸当り
6
CONTINUOUS
62
  7
100
AcDbVertex
100
AcDb2dVertex
10
969.163000000000
20
1520.672000000000
30
0.0
0
VERTEX
5
4b4
100
AcDbEntity
8
0-6戸当り
6
CONTINUOUS
62
  7
100
AcDbVertex
100
AcDb2dVertex
10
978.663000000000
20
1526.157000000000
30
0.0
0
SEQEND
5
4b5
100
AcDbEntity
8
0-6戸当り
0
LINE
5
4b6
100
AcDbEntity
8
0-8寸法
6
CONTINUOUS
62
4
100
AcDbLine
10
2887.095000000000
20
685.188000000000
30
0.0
11
2887.095000000000
21
1385.188000000000
31
0.0
0
LINE
5
4b7
100
AcDbEntity
8
0-8寸法
6
CONTINUOUS
62
4
100
AcDbLine
10
2887.095000000000
20
685.188000000000
30
0.0
11
2881.918000000000
21
704.506000000000
31
0.0
0
LINE
5
4b8
100
AcDbEntity
8
0-8寸法
6
CONTINUOUS
62
4
100
AcDbLine
10
2887.095000000000
20
685.188000000000
30
0.0
11
2892.271000000000
21
704.506000000000
31
0.0
0
LINE
5
4b9
100
AcDbEntity
8
0-8寸法
6
CONTINUOUS
62
4
100
AcDbLine
10
2887.095000000000
20
1385.188000000000
30
0.0
11
2881.918000000000
21
1365.869000000000
31
0.0
0
LINE
5
4ba
100
AcDbEntity
8
0-8寸法
6
CONTINUOUS
62
4
100
AcDbLine
10
2887.095000000000
20
1385.188000000000
30
0.0
11
2892.271000000000
21
1365.869000000000
31
0.0
0
LINE
5
4bb
100
AcDbEntity
8
0-8寸法
6
CONTINUOUS
62
4
100
AcDbLine
10
893.663000000000
20
435.188000000000
30
0.0
11
1693.663000000000
21
435.188000000000
31
0.0
0
LINE
5
4bc
100
AcDbEntity
8
0-8寸法
6
CONTINUOUS
62
4
100
AcDbLine
10
893.663000000000
20
435.188000000000
30
0.0
11
912.982000000000
21
440.364000000000
31
0.0
0
LINE
5
4bd
100
AcDbEntity
8
0-8寸法
6
CONTINUOUS
62
4
100
AcDbLine
10
893.663000000000
20
435.188000000000
30
0.0
11
912.982000000000
21
430.011000000000
31
0.0
0
LINE
5
4be
100
AcDbEntity
8
0-8寸法
6
CONTINUOUS
62
4
100
AcDbLine
10
1693.663000000000
20
435.188000000000
30
0.0
11
1674.344000000000
21
440.364000000000
31
0.0
0
LINE
5
4bf
100
AcDbEntity
8
0-8寸法
6
CONTINUOUS
62
4
100
AcDbLine
10
1693.663000000000
20
435.188000000000
30
0.0
11
1674.344000000000
21
430.011000000000
31
0.0
0
LINE
5
4c0
100
AcDbEntity
8
0-8寸法
6
CONTINUOUS
62
4
100
AcDbLine
10
693.663000000000
20
635.188000000000
30
0.0
11
693.663000000000
21
1435.188000000000
31
0.0
0
LINE
5
4c1
100
AcDbEntity
8
0-8寸法
6
CONTINUOUS
62
4
100
AcDbLine
10
881.338000000000
20
635.188000000000
30
0.0
11
683.663000000000
21
635.188000000000
31
0.0
0
LINE
5
4c2
100
AcDbEntity
8
0-8寸法
6
CONTINUOUS
62
4
100
AcDbLine
10
881.338000000000
20
1435.188000000000
30
0.0
11
683.663000000000
21
1435.188000000000
31
0.0
0
LINE
5
4c3
100
AcDbEntity
8
0-8寸法
6
CONTINUOUS
62
4
100
AcDbLine
10
693.663000000000
20
635.188000000000
30
0.0
11
688.487000000000
21
654.506000000000
31
0.0
0
LINE
5
4c4
100
AcDbEntity
8
0-8寸法
6
CONTINUOUS
62
4
100
AcDbLine
10
693.663000000000
20
635.188000000000
30
0.0
11
698.839000000000
21
654.506000000000
31
0.0
0
LINE
5
4c5
100
AcDbEntity
8
0-8寸法
6
CONTINUOUS
62
4
100
AcDbLine
10
693.663000000000
20
1435.188000000000
30
0.0
11
688.487000000000
21
1415.869000000000
31
0.0
0
LINE
5
4c6
100
AcDbEntity
8
0-8寸法
6
CONTINUOUS
62
4
100
AcDbLine
10
693.663000000000
20
1435.188000000000
30
0.0
11
698.839000000000
21
1415.869000000000
31
0.0
0
LINE
5
4c7
100
AcDbEntity
8
0-8寸法
6
CONTINUOUS
62
4
100
AcDbLine
10
893.663000000000
20
628.332000000000
30
0.0
11
893.663000000000
21
425.188000000000
31
0.0
0
LINE
5
4c8
100
AcDbEntity
8
0-8寸法
6
CONTINUOUS
62
4
100
AcDbLine
10
1693.663000000000
20
628.332000000000
30
0.0
11
1693.663000000000
21
425.188000000000
31
0.0
0
LINE
5
4c9
100
AcDbEntity
8
0-8寸法
6
CONTINUOUS
62
4
100
AcDbLine
10
1053.663000000000
20
1760.188000000000
30
0.0
11
1533.663000000000
21
1760.188000000000
31
0.0
0
LINE
5
4ca
100
AcDbEntity
8
0-8寸法
6
CONTINUOUS
62
4
100
AcDbLine
10
1053.663000000000
20
1760.188000000000
30
0.0
11
1072.981000000000
21
1765.364000000000
31
0.0
0
LINE
5
4cb
100
AcDbEntity
8
0-8寸法
6
CONTINUOUS
62
4
100
AcDbLine
10
1053.663000000000
20
1760.188000000000
30
0.0
11
1072.981000000000
21
1755.011000000000
31
0.0
0
LINE
5
4cc
100
AcDbEntity
8
0-8寸法
6
CONTINUOUS
62
4
100
AcDbLine
10
1533.663000000000
20
1760.188000000000
30
0.0
11
1514.345000000000
21
1765.364000000000
31
0.0
0
LINE
5
4cd
100
AcDbEntity
8
0-8寸法
6
CONTINUOUS
62
4
100
AcDbLine
10
1533.663000000000
20
1760.188000000000
30
0.0
11
1514.345000000000
21
1755.011000000000
31
0.0
0
LINE
5
4ce
100
AcDbEntity
8
0-9扉体
6
CONTINUOUS
62
3
100
AcDbLine
10
1633.663000000000
20
2322.647000000000
30
0.0
11
1633.663000000000
21
2330.647000000000
31
0.0
0
LINE
5
4cf
100
AcDbEntity
8
0-9扉体
6
CONTINUOUS
62
3
100
AcDbLine
10
1673.663000000000
20
2332.647000000000
30
0.0
11
1673.663000000000
21
2330.647000000000
31
0.0
0
LINE
5
4d0
100
AcDbEntity
8
0-9扉体
6
CONTINUOUS
62
3
100
AcDbLine
10
1672.663000000000
20
2330.647000000000
30
0.0
11
1672.663000000000
21
2336.647000000000
31
0.0
0
LINE
5
4d1
100
AcDbEntity
8
0-9扉体
6
CONTINUOUS
62
3
100
AcDbLine
10
1634.663000000000
20
2330.647000000000
30
0.0
11
1634.663000000000
21
2336.647000000000
31
0.0
0
LINE
5
4d2
100
AcDbEntity
8
0-9扉体
6
DOT
62
3
100
AcDbLine
10
1649.663000000000
20
2332.647000000000
30
0.0
11
1645.663000000000
21
2336.647000000000
31
0.0
0
LINE
5
4d3
100
AcDbEntity
8
0-9扉体
6
DOT
62
3
100
AcDbLine
10
1657.663000000000
20
2332.647000000000
30
0.0
11
1661.663000000000
21
2336.647000000000
31
0.0
0
LINE
5
4d4
100
AcDbEntity
8
0-9扉体
6
DOT
62
3
100
AcDbLine
10
1649.663000000000
20
2332.647000000000
30
0.0
11
1657.663000000000
21
2332.647000000000
31
0.0
0
LINE
5
4d5
100
AcDbEntity
8
0-9扉体
6
DOT
62
3
100
AcDbLine
10
1657.663000000000
20
2316.647000000000
30
0.0
11
1657.663000000000
21
2332.647000000000
31
0.0
0
LINE
5
4d6
100
AcDbEntity
8
0-9扉体
6
DOT
62
3
100
AcDbLine
10
1649.663000000000
20
2316.647000000000
30
0.0
11
1649.663000000000
21
2332.647000000000
31
0.0
0
LINE
5
4d7
100
AcDbEntity
8
0-9扉体
6
CONTINUOUS
62
3
100
AcDbLine
10
1644.663000000000
20
2315.047000000000
30
0.0
11
1644.663000000000
21
2316.647000000000
31
0.0
0
LINE
5
4d8
100
AcDbEntity
8
0-9扉体
6
CONTINUOUS
62
3
100
AcDbLine
10
1662.663000000000
20
2315.047000000000
30
0.0
11
1662.663000000000
21
2316.647000000000
31
0.0
0
LINE
5
4d9
100
AcDbEntity
8
0-9扉体
6
CONTINUOUS
62
3
100
AcDbLine
10
1649.663000000000
20
2301.647000000000
30
0.0
11
1657.663000000000
21
2301.647000000000
31
0.0
0
LINE
5
4da
100
AcDbEntity
8
0-9扉体
6
CONTINUOUS
62
3
100
AcDbLine
10
1662.663000000000
20
2315.047000000000
30
0.0
11
1644.663000000000
21
2315.047000000000
31
0.0
0
LINE
5
4db
100
AcDbEntity
8
0-5基準線
6
CENTER2
62
7
100
AcDbLine
10
1653.663000000000
20
2299.244000000000
30
0.0
11
1653.663000000000
21
2338.172000000000
31
0.0
0
LINE
5
4dc
100
AcDbEntity
8
0-9扉体
6
CONTINUOUS
62
7
100
AcDbLine
10
1647.163000000000
20
2308.547000000000
30
0.0
11
1646.158000000000
21
2309.128000000000
31
0.0
0
LINE
5
4dd
100
AcDbEntity
8
0-9扉体
6
CONTINUOUS
62
7
100
AcDbLine
10
1660.163000000000
20
2308.547000000000
30
0.0
11
1661.168000000000
21
2309.128000000000
31
0.0
0
LINE
5
4de
100
AcDbEntity
8
0-9扉体
6
CONTINUOUS
62
7
100
AcDbLine
10
1647.163000000000
20
2308.547000000000
30
0.0
11
1660.163000000000
21
2308.547000000000
31
0.0
0
LINE
5
4df
100
AcDbEntity
8
0-9扉体
6
CONTINUOUS
62
3
100
AcDbLine
10
1657.663000000000
20
2308.547000000000
30
0.0
11
1657.663000000000
21
2301.647000000000
31
0.0
0
LINE
5
4e0
100
AcDbEntity
8
0-9扉体
6
CONTINUOUS
62
3
100
AcDbLine
10
1649.663000000000
20
2308.547000000000
30
0.0
11
1649.663000000000
21
2301.647000000000
31
0.0
0
LINE
5
4e1
100
AcDbEntity
8
0-9扉体
6
CONTINUOUS
62
7
100
AcDbLine
10
1661.168000000000
20
2315.047000000000
30
0.0
11
1661.168000000000
21
2309.128000000000
31
0.0
0
LINE
5
4e2
100
AcDbEntity
8
0-9扉体
6
CONTINUOUS
62
7
100
AcDbLine
10
1657.416000000000
20
2315.047000000000
30
0.0
11
1657.416000000000
21
2309.128000000000
31
0.0
0
LINE
5
4e3
100
AcDbEntity
8
0-9扉体
6
CONTINUOUS
62
7
100
AcDbLine
10
1649.910000000000
20
2315.047000000000
30
0.0
11
1649.910000000000
21
2309.128000000000
31
0.0
0
LINE
5
4e4
100
AcDbEntity
8
0-9扉体
6
CONTINUOUS
62
7
100
AcDbLine
10
1646.158000000000
20
2315.047000000000
30
0.0
11
1646.158000000000
21
2309.128000000000
31
0.0
0
LINE
5
4e5
100
AcDbEntity
8
0-9扉体
6
CONTINUOUS
62
2
100
AcDbLine
10
1656.663000000000
20
2308.547000000000
30
0.0
11
1656.663000000000
21
2301.647000000000
31
0.0
0
LINE
5
4e6
100
AcDbEntity
8
0-9扉体
6
CONTINUOUS
62
2
100
AcDbLine
10
1650.663000000000
20
2308.547000000000
30
0.0
11
1650.663000000000
21
2301.647000000000
31
0.0
0
LINE
5
4e7
100
AcDbEntity
8
0-9扉体
6
CONTINUOUS
62
6
100
AcDbLine
10
1693.614000000000
20
2333.640000000000
30
0.0
11
1684.656000000000
21
2342.598000000000
31
0.0
0
LINE
5
4e8
100
AcDbEntity
8
0-9扉体
6
CONTINUOUS
62
6
100
AcDbLine
10
1693.652000000000
20
2332.187000000000
30
0.0
11
1683.203000000000
21
2342.637000000000
31
0.0
0
LINE
5
4e9
100
AcDbEntity
8
0-9扉体
6
CONTINUOUS
62
6
100
AcDbLine
10
1676.322000000000
20
2322.647000000000
30
0.0
11
1668.322000000000
21
2330.647000000000
31
0.0
0
LINE
5
4ea
100
AcDbEntity
8
0-9扉体
6
CONTINUOUS
62
6
100
AcDbLine
10
1674.908000000000
20
2322.647000000000
30
0.0
11
1666.908000000000
21
2330.647000000000
31
0.0
0
LINE
5
4eb
100
AcDbEntity
8
0-9扉体
6
CONTINUOUS
62
6
100
AcDbLine
10
1662.180000000000
20
2322.647000000000
30
0.0
11
1654.180000000000
21
2330.647000000000
31
0.0
0
LINE
5
4ec
100
AcDbEntity
8
0-9扉体
6
CONTINUOUS
62
6
100
AcDbLine
10
1660.766000000000
20
2322.647000000000
30
0.0
11
1652.766000000000
21
2330.647000000000
31
0.0
0
LINE
5
4ed
100
AcDbEntity
8
0-9扉体
6
CONTINUOUS
62
6
100
AcDbLine
10
1648.038000000000
20
2322.647000000000
30
0.0
11
1640.038000000000
21
2330.647000000000
31
0.0
0
LINE
5
4ee
100
AcDbEntity
8
0-9扉体
6
CONTINUOUS
62
6
100
AcDbLine
10
1646.624000000000
20
2322.647000000000
30
0.0
11
1638.624000000000
21
2330.647000000000
31
0.0
0
LINE
5
4ef
100
AcDbEntity
8
0-9扉体
6
CONTINUOUS
62
6
100
AcDbLine
10
1633.896000000000
20
2322.647000000000
30
0.0
11
1633.663000000000
21
2322.880000000000
31
0.0
0
LINE
5
4f0
100
AcDbEntity
8
0-9扉体
6
CONTINUOUS
62
6
100
AcDbLine
10
1688.951000000000
20
2324.160000000000
30
0.0
11
1684.396000000000
21
2328.715000000000
31
0.0
0
LINE
5
4f1
100
AcDbEntity
8
0-9扉体
6
CONTINUOUS
62
6
100
AcDbLine
10
1679.731000000000
20
2333.381000000000
30
0.0
11
1675.176000000000
21
2337.936000000000
31
0.0
0
LINE
5
4f2
100
AcDbEntity
8
0-9扉体
6
CONTINUOUS
62
6
100
AcDbLine
10
1688.041000000000
20
2323.657000000000
30
0.0
11
1682.994000000000
21
2328.704000000000
31
0.0
0
LINE
5
4f3
100
AcDbEntity
8
0-9扉体
6
CONTINUOUS
62
6
100
AcDbLine
10
1679.719000000000
20
2331.978000000000
30
0.0
11
1674.672000000000
21
2337.025000000000
31
0.0
0
LINE
5
4f4
100
AcDbEntity
8
0-9扉体
6
CONTINUOUS
62
4
100
AcDbLine
10
1698.663000000000
20
2316.647000000000
30
0.0
11
1698.663000000000
21
2322.647000000000
31
0.0
0
LINE
5
4f5
100
AcDbEntity
8
0-5基準線
6
CENTER2
62
7
100
AcDbLine
10
1053.663000000000
20
2249.192000000000
30
0.0
11
1053.663000000000
21
2422.268000000000
31
0.0
0
LINE
5
4f6
100
AcDbEntity
8
0-8寸法
6
CONTINUOUS
62
4
100
AcDbLine
10
2452.095000000000
20
435.188000000000
30
0.0
11
2452.095000000000
21
335.188000000000
31
0.0
0
LINE
5
4f7
100
AcDbEntity
8
0-8寸法
6
CONTINUOUS
62
4
100
AcDbLine
10
943.663000000000
20
2654.647000000000
30
0.0
11
1643.663000000000
21
2654.647000000000
31
0.0
0
LINE
5
4f8
100
AcDbEntity
8
0-8寸法
6
CONTINUOUS
62
4
100
AcDbLine
10
943.663000000000
20
2654.647000000000
30
0.0
11
962.982000000000
21
2659.823000000000
31
0.0
0
LINE
5
4f9
100
AcDbEntity
8
0-8寸法
6
CONTINUOUS
62
4
100
AcDbLine
10
943.663000000000
20
2654.647000000000
30
0.0
11
962.982000000000
21
2649.471000000000
31
0.0
0
LINE
5
4fa
100
AcDbEntity
8
0-8寸法
6
CONTINUOUS
62
4
100
AcDbLine
10
1643.663000000000
20
2654.647000000000
30
0.0
11
1624.344000000000
21
2659.823000000000
31
0.0
0
LINE
5
4fb
100
AcDbEntity
8
0-8寸法
6
CONTINUOUS
62
4
100
AcDbLine
10
1643.663000000000
20
2654.647000000000
30
0.0
11
1624.344000000000
21
2649.471000000000
31
0.0
0
LINE
5
4fc
100
AcDbEntity
8
0-8寸法
6
CONTINUOUS
62
4
100
AcDbLine
10
1751.679000000000
20
2160.188000000000
30
0.0
11
1677.700000000000
21
2327.688000000000
31
0.0
0
LINE
5
4fd
100
AcDbEntity
8
0-6戸当り
6
CONTINUOUS
62
6
100
AcDbLine
10
2575.095000000000
20
585.188000000000
30
0.0
11
2587.095000000000
21
585.188000000000
31
0.0
0
LINE
5
4fe
100
AcDbEntity
8
0-6戸当り
6
CONTINUOUS
62
6
100
AcDbLine
10
2575.095000000000
20
1535.188000000000
30
0.0
11
2587.095000000000
21
1535.188000000000
31
0.0
0
LINE
5
4ff
100
AcDbEntity
8
0-6戸当り
6
CONTINUOUS
62
6
100
AcDbLine
10
1743.663000000000
20
585.188000000000
30
0.0
11
843.663000000000
21
585.188000000000
31
0.0
0
LINE
5
500
100
AcDbEntity
8
0-6戸当り
6
CONTINUOUS
62
6
100
AcDbLine
10
1743.663000000000
20
1535.188000000000
30
0.0
11
1743.663000000000
21
585.188000000000
31
0.0
0
LINE
5
501
100
AcDbEntity
8
0-6戸当り
6
CONTINUOUS
62
6
100
AcDbLine
10
843.663000000000
20
1535.188000000000
30
0.0
11
1743.663000000000
21
1535.188000000000
31
0.0
0
LINE
5
502
100
AcDbEntity
8
0-6戸当り
6
CONTINUOUS
62
6
100
AcDbLine
10
843.663000000000
20
585.188000000000
30
0.0
11
843.663000000000
21
1535.188000000000
31
0.0
0
LINE
5
503
100
AcDbEntity
8
0-6戸当り
6
CONTINUOUS
62
2
100
AcDbLine
10
2591.296000000000
20
610.187000000000
30
0.0
11
2620.808000000000
21
612.688000000000
31
0.0
0
LINE
5
504
100
AcDbEntity
8
0-6戸当り
6
CONTINUOUS
62
2
100
AcDbLine
10
2591.296000000000
20
605.188000000000
30
0.0
11
2620.808000000000
21
607.687000000000
31
0.0
0
LINE
5
505
100
AcDbEntity
8
0-6戸当り
6
CONTINUOUS
62
2
100
AcDbLine
10
2591.296000000000
20
610.187000000000
30
0.0
11
2591.296000000000
21
600.188000000000
31
0.0
0
LINE
5
506
100
AcDbEntity
8
0-6戸当り
6
CONTINUOUS
62
2
100
AcDbLine
10
2595.512000000000
20
610.545000000000
30
0.0
11
2595.512000000000
21
605.545000000000
31
0.0
0
LINE
5
507
100
AcDbEntity
8
0-6戸当り
6
CONTINUOUS
62
2
100
AcDbLine
10
2599.728000000000
20
610.902000000000
30
0.0
11
2599.728000000000
21
605.901000000000
31
0.0
0
LINE
5
508
100
AcDbEntity
8
0-6戸当り
6
CONTINUOUS
62
2
100
AcDbLine
10
2603.944000000000
20
611.259000000000
30
0.0
11
2603.944000000000
21
606.259000000000
31
0.0
0
LINE
5
509
100
AcDbEntity
8
0-6戸当り
6
CONTINUOUS
62
2
100
AcDbLine
10
2608.160000000000
20
611.616000000000
30
0.0
11
2608.160000000000
21
606.616000000000
31
0.0
0
LINE
5
50a
100
AcDbEntity
8
0-6戸当り
6
CONTINUOUS
62
2
100
AcDbLine
10
2612.376000000000
20
611.973000000000
30
0.0
11
2612.376000000000
21
606.973000000000
31
0.0
0
LINE
5
50b
100
AcDbEntity
8
0-6戸当り
6
CONTINUOUS
62
2
100
AcDbLine
10
2616.592000000000
20
612.330000000000
30
0.0
11
2616.592000000000
21
607.330000000000
31
0.0
0
POLYLINE
5
50c
100
AcDbEntity
8
0-6戸当り
6
CONTINUOUS
62
  2
100
AcDb2dPolyline
66
1
10
0.0
20
0.0
30
0.0
70
0
0
VERTEX
5
50d
100
AcDbEntity
8
0-6戸当り
6
CONTINUOUS
62
  2
100
AcDbVertex
100
AcDb2dVertex
10
2591.296000000000
20
600.188000000000
30
0.0
0
VERTEX
5
50e
100
AcDbEntity
8
0-6戸当り
6
CONTINUOUS
62
  2
100
AcDbVertex
100
AcDb2dVertex
10
2620.808000000000
20
597.687000000000
30
0.0
0
VERTEX
5
50f
100
AcDbEntity
8
0-6戸当り
6
CONTINUOUS
62
  2
100
AcDbVertex
100
AcDb2dVertex
10
2620.808000000000
20
602.688000000000
30
0.0
0
SEQEND
5
510
100
AcDbEntity
8
0-6戸当り
0
LINE
5
511
100
AcDbEntity
8
0-6戸当り
6
CONTINUOUS
62
2
100
AcDbLine
10
2591.296000000000
20
605.188000000000
30
0.0
11
2620.808000000000
21
602.688000000000
31
0.0
0
LINE
5
512
100
AcDbEntity
8
0-6戸当り
6
CONTINUOUS
62
2
100
AcDbLine
10
2595.512000000000
20
599.830000000000
30
0.0
11
2595.512000000000
21
604.830000000000
31
0.0
0
LINE
5
513
100
AcDbEntity
8
0-6戸当り
6
CONTINUOUS
62
2
100
AcDbLine
10
2599.728000000000
20
599.474000000000
30
0.0
11
2599.728000000000
21
604.473000000000
31
0.0
0
LINE
5
514
100
AcDbEntity
8
0-6戸当り
6
CONTINUOUS
62
2
100
AcDbLine
10
2603.944000000000
20
599.116000000000
30
0.0
11
2603.944000000000
21
604.116000000000
31
0.0
0
LINE
5
515
100
AcDbEntity
8
0-6戸当り
6
CONTINUOUS
62
2
100
AcDbLine
10
2608.160000000000
20
598.759000000000
30
0.0
11
2608.160000000000
21
603.759000000000
31
0.0
0
LINE
5
516
100
AcDbEntity
8
0-6戸当り
6
CONTINUOUS
62
2
100
AcDbLine
10
2612.376000000000
20
598.402000000000
30
0.0
11
2612.376000000000
21
603.402000000000
31
0.0
0
LINE
5
517
100
AcDbEntity
8
0-6戸当り
6
CONTINUOUS
62
2
100
AcDbLine
10
2616.592000000000
20
598.044000000000
30
0.0
11
2616.592000000000
21
603.045000000000
31
0.0
0
LINE
5
518
100
AcDbEntity
8
0-6戸当り
6
CONTINUOUS
62
3
100
AcDbLine
10
2573.494000000000
20
616.187000000000
30
0.0
11
2575.095000000000
21
616.187000000000
31
0.0
0
LINE
5
519
100
AcDbEntity
8
0-6戸当り
6
CONTINUOUS
62
3
100
AcDbLine
10
2573.494000000000
20
594.187000000000
30
0.0
11
2575.095000000000
21
594.187000000000
31
0.0
0
LINE
5
51a
100
AcDbEntity
8
0-6戸当り
6
CONTINUOUS
62
7
100
AcDbLine
10
2565.494000000000
20
613.687000000000
30
0.0
11
2566.254000000000
21
615.003000000000
31
0.0
0
POLYLINE
5
51b
100
AcDbEntity
8
0-6戸当り
6
CONTINUOUS
62
  7
100
AcDb2dPolyline
66
1
10
0.0
20
0.0
30
0.0
70
0
0
VERTEX
5
51c
100
AcDbEntity
8
0-6戸当り
6
CONTINUOUS
62
  7
100
AcDbVertex
100
AcDb2dVertex
10
2565.494000000000
20
613.687000000000
30
0.0
0
VERTEX
5
51d
100
AcDbEntity
8
0-6戸当り
6
CONTINUOUS
62
  7
100
AcDbVertex
100
AcDb2dVertex
10
2565.494000000000
20
596.687000000000
30
0.0
0
VERTEX
5
51e
100
AcDbEntity
8
0-6戸当り
6
CONTINUOUS
62
  7
100
AcDbVertex
100
AcDb2dVertex
10
2566.254000000000
20
595.372000000000
30
0.0
0
SEQEND
5
51f
100
AcDbEntity
8
0-6戸当り
0
LINE
5
520
100
AcDbEntity
8
0-6戸当り
6
CONTINUOUS
62
7
100
AcDbLine
10
2573.494000000000
20
595.372000000000
30
0.0
11
2566.254000000000
21
595.372000000000
31
0.0
0
LINE
5
521
100
AcDbEntity
8
0-6戸当り
6
CONTINUOUS
62
7
100
AcDbLine
10
2573.494000000000
20
610.095000000000
30
0.0
11
2566.254000000000
21
610.095000000000
31
0.0
0
LINE
5
522
100
AcDbEntity
8
0-6戸当り
6
CONTINUOUS
62
7
100
AcDbLine
10
2573.494000000000
20
600.280000000000
30
0.0
11
2566.254000000000
21
600.280000000000
31
0.0
0
LINE
5
523
100
AcDbEntity
8
0-6戸当り
6
CONTINUOUS
62
7
100
AcDbLine
10
2573.494000000000
20
615.003000000000
30
0.0
11
2566.254000000000
21
615.003000000000
31
0.0
0
LINE
5
524
100
AcDbEntity
8
0-6戸当り
6
CONTINUOUS
62
3
100
AcDbLine
10
2573.494000000000
20
594.187000000000
30
0.0
11
2573.494000000000
21
616.187000000000
31
0.0
0
LINE
5
525
100
AcDbEntity
8
0-6戸当り
6
CONTINUOUS
62
3
100
AcDbLine
10
2565.494000000000
20
600.187000000000
30
0.0
11
2560.809000000000
21
600.187000000000
31
0.0
0
LINE
5
526
100
AcDbEntity
8
0-6戸当り
6
CONTINUOUS
62
3
100
AcDbLine
10
2565.494000000000
20
610.188000000000
30
0.0
11
2560.809000000000
21
610.188000000000
31
0.0
0
LINE
5
527
100
AcDbEntity
8
0-6戸当り
6
CONTINUOUS
62
4
100
AcDbLine
10
2565.494000000000
20
601.188000000000
30
0.0
11
2560.578000000000
21
601.188000000000
31
0.0
0
LINE
5
528
100
AcDbEntity
8
0-6戸当り
6
CONTINUOUS
62
4
100
AcDbLine
10
2565.494000000000
20
609.187000000000
30
0.0
11
2560.578000000000
21
609.187000000000
31
0.0
0
LINE
5
529
100
AcDbEntity
8
0-6戸当り
6
CONTINUOUS
62
3
100
AcDbLine
10
2560.809000000000
20
600.187000000000
30
0.0
11
2560.809000000000
21
610.188000000000
31
0.0
0
LINE
5
52a
100
AcDbEntity
8
0-6戸当り
6
CONTINUOUS
62
2
100
AcDbLine
10
2620.808000000000
20
612.688000000000
30
0.0
11
2620.808000000000
21
607.687000000000
31
0.0
0
LINE
5
52b
100
AcDbEntity
8
0-6戸当り
6
CONTINUOUS
62
2
100
AcDbLine
10
2587.095000000000
20
610.187000000000
30
0.0
11
2591.296000000000
21
610.187000000000
31
0.0
0
LINE
5
52c
100
AcDbEntity
8
0-6戸当り
6
CONTINUOUS
62
2
100
AcDbLine
10
2587.095000000000
20
600.188000000000
30
0.0
11
2591.296000000000
21
600.188000000000
31
0.0
0
LINE
5
52d
100
AcDbEntity
8
0-5基準線
6
CENTER2
62
7
100
AcDbLine
10
2556.922000000000
20
605.188000000000
30
0.0
11
2625.877000000000
21
605.188000000000
31
0.0
0
LINE
5
52e
100
AcDbEntity
8
0-6戸当り
6
CONTINUOUS
62
3
100
AcDbLine
10
1723.663000000000
20
614.987000000000
30
0.0
11
1715.176000000000
21
610.087000000000
31
0.0
0
LINE
5
52f
100
AcDbEntity
8
0-6戸当り
6
CONTINUOUS
62
3
100
AcDbLine
10
1723.663000000000
20
595.387000000000
30
0.0
11
1715.176000000000
21
600.287000000000
31
0.0
0
LINE
5
530
100
AcDbEntity
8
0-6戸当り
6
CONTINUOUS
62
3
100
AcDbLine
10
1715.176000000000
20
610.087000000000
30
0.0
11
1715.176000000000
21
600.287000000000
31
0.0
0
LINE
5
531
100
AcDbEntity
8
0-6戸当り
6
CONTINUOUS
62
3
100
AcDbLine
10
1723.663000000000
20
595.387000000000
30
0.0
11
1732.150000000000
21
600.287000000000
31
0.0
0
LINE
5
532
100
AcDbEntity
8
0-6戸当り
6
CONTINUOUS
62
3
100
AcDbLine
10
1723.663000000000
20
614.987000000000
30
0.0
11
1732.150000000000
21
610.087000000000
31
0.0
0
LINE
5
533
100
AcDbEntity
8
0-6戸当り
6
CONTINUOUS
62
3
100
AcDbLine
10
1732.150000000000
20
600.287000000000
30
0.0
11
1732.150000000000
21
610.087000000000
31
0.0
0
LINE
5
534
100
AcDbEntity
8
0-5基準線
6
CENTER2
62
7
100
AcDbLine
10
1723.663000000000
20
590.187000000000
30
0.0
11
1723.663000000000
21
620.187000000000
31
0.0
0
LINE
5
535
100
AcDbEntity
8
0-5基準線
6
CENTER2
62
7
100
AcDbLine
10
1708.663000000000
20
605.187000000000
30
0.0
11
1738.663000000000
21
605.187000000000
31
0.0
0
LINE
5
536
100
AcDbEntity
8
0-6戸当り
6
CONTINUOUS
62
3
100
AcDbLine
10
863.663000000000
20
614.987000000000
30
0.0
11
872.150000000000
21
610.087000000000
31
0.0
0
LINE
5
537
100
AcDbEntity
8
0-6戸当り
6
CONTINUOUS
62
3
100
AcDbLine
10
863.663000000000
20
595.387000000000
30
0.0
11
872.150000000000
21
600.287000000000
31
0.0
0
LINE
5
538
100
AcDbEntity
8
0-6戸当り
6
CONTINUOUS
62
3
100
AcDbLine
10
872.150000000000
20
610.087000000000
30
0.0
11
872.150000000000
21
600.287000000000
31
0.0
0
LINE
5
539
100
AcDbEntity
8
0-6戸当り
6
CONTINUOUS
62
3
100
AcDbLine
10
863.663000000000
20
595.387000000000
30
0.0
11
855.176000000000
21
600.287000000000
31
0.0
0
LINE
5
53a
100
AcDbEntity
8
0-6戸当り
6
CONTINUOUS
62
3
100
AcDbLine
10
863.663000000000
20
614.987000000000
30
0.0
11
855.176000000000
21
610.087000000000
31
0.0
0
LINE
5
53b
100
AcDbEntity
8
0-6戸当り
6
CONTINUOUS
62
3
100
AcDbLine
10
855.176000000000
20
600.287000000000
30
0.0
11
855.176000000000
21
610.087000000000
31
0.0
0
LINE
5
53c
100
AcDbEntity
8
0-5基準線
6
CENTER2
62
7
100
AcDbLine
10
863.663000000000
20
590.187000000000
30
0.0
11
863.663000000000
21
620.187000000000
31
0.0
0
LINE
5
53d
100
AcDbEntity
8
0-5基準線
6
CENTER2
62
7
100
AcDbLine
10
878.663000000000
20
605.187000000000
30
0.0
11
848.663000000000
21
605.187000000000
31
0.0
0
LINE
5
53e
100
AcDbEntity
8
0-8寸法
6
CONTINUOUS
62
4
100
AcDbLine
10
1743.663000000000
20
335.188000000000
30
0.0
11
1762.981000000000
21
340.364000000000
31
0.0
0
LINE
5
53f
100
AcDbEntity
8
0-8寸法
6
CONTINUOUS
62
4
100
AcDbLine
10
1743.663000000000
20
335.188000000000
30
0.0
11
1762.981000000000
21
330.011000000000
31
0.0
0
LINE
5
540
100
AcDbEntity
8
0-8寸法
6
CONTINUOUS
62
4
100
AcDbLine
10
843.663000000000
20
235.188000000000
30
0.0
11
1743.663000000000
21
235.188000000000
31
0.0
0
LINE
5
541
100
AcDbEntity
8
0-8寸法
6
CONTINUOUS
62
4
100
AcDbLine
10
843.663000000000
20
235.188000000000
30
0.0
11
862.981000000000
21
240.364000000000
31
0.0
0
LINE
5
542
100
AcDbEntity
8
0-8寸法
6
CONTINUOUS
62
4
100
AcDbLine
10
843.663000000000
20
235.188000000000
30
0.0
11
862.981000000000
21
230.011000000000
31
0.0
0
LINE
5
543
100
AcDbEntity
8
0-8寸法
6
CONTINUOUS
62
4
100
AcDbLine
10
1743.663000000000
20
235.188000000000
30
0.0
11
1724.344000000000
21
240.364000000000
31
0.0
0
LINE
5
544
100
AcDbEntity
8
0-8寸法
6
CONTINUOUS
62
4
100
AcDbLine
10
1743.663000000000
20
235.188000000000
30
0.0
11
1724.344000000000
21
230.011000000000
31
0.0
0
LINE
5
545
100
AcDbEntity
8
0-8寸法
6
CONTINUOUS
62
4
100
AcDbLine
10
1723.663000000000
20
335.188000000000
30
0.0
11
1818.809000000000
21
335.188000000000
31
0.0
0
LINE
5
546
100
AcDbEntity
8
0-8寸法
6
CONTINUOUS
62
4
100
AcDbLine
10
843.663000000000
20
573.958000000000
30
0.0
11
843.663000000000
21
225.188000000000
31
0.0
0
LINE
5
547
100
AcDbEntity
8
0-8寸法
6
CONTINUOUS
62
4
100
AcDbLine
10
1743.663000000000
20
573.958000000000
30
0.0
11
1743.663000000000
21
225.188000000000
31
0.0
0
LINE
5
548
100
AcDbEntity
8
0-8寸法
6
CONTINUOUS
62
4
100
AcDbLine
10
843.663000000000
20
335.188000000000
30
0.0
11
824.344000000000
21
340.364000000000
31
0.0
0
LINE
5
549
100
AcDbEntity
8
0-8寸法
6
CONTINUOUS
62
4
100
AcDbLine
10
843.663000000000
20
335.188000000000
30
0.0
11
824.344000000000
21
330.011000000000
31
0.0
0
LINE
5
54a
100
AcDbEntity
8
0-8寸法
6
CONTINUOUS
62
4
100
AcDbLine
10
863.663000000000
20
335.188000000000
30
0.0
11
768.517000000000
21
335.188000000000
31
0.0
0
LINE
5
54b
100
AcDbEntity
8
0-5基準線
6
CENTER2
62
7
100
AcDbLine
10
1053.663000000000
20
1528.137000000000
30
0.0
11
1053.663000000000
21
1423.724000000000
31
0.0
0
LINE
5
54c
100
AcDbEntity
8
0-5基準線
6
CENTER2
62
7
100
AcDbLine
10
978.663000000000
20
1532.188000000000
30
0.0
11
978.663000000000
21
1498.188000000000
31
0.0
0
LINE
5
54d
100
AcDbEntity
8
0-5基準線
6
CENTER2
62
7
100
AcDbLine
10
995.663000000000
20
1515.188000000000
30
0.0
11
961.663000000000
21
1515.188000000000
31
0.0
0
LINE
5
54e
100
AcDbEntity
8
0-6戸当り
6
CONTINUOUS
62
7
100
AcDbLine
10
1119.163000000000
20
1520.672000000000
30
0.0
11
1128.663000000000
21
1526.157000000000
31
0.0
0
LINE
5
54f
100
AcDbEntity
8
0-6戸当り
6
CONTINUOUS
62
7
100
AcDbLine
10
1119.163000000000
20
1520.672000000000
30
0.0
11
1119.163000000000
21
1509.703000000000
31
0.0
0
LINE
5
550
100
AcDbEntity
8
0-6戸当り
6
CONTINUOUS
62
7
100
AcDbLine
10
1128.663000000000
20
1504.218000000000
30
0.0
11
1119.163000000000
21
1509.703000000000
31
0.0
0
POLYLINE
5
551
100
AcDbEntity
8
0-6戸当り
6
CONTINUOUS
62
  7
100
AcDb2dPolyline
66
1
10
0.0
20
0.0
30
0.0
70
0
0
VERTEX
5
552
100
AcDbEntity
8
0-6戸当り
6
CONTINUOUS
62
  7
100
AcDbVertex
100
AcDb2dVertex
10
1128.663000000000
20
1504.218000000000
30
0.0
0
VERTEX
5
553
100
AcDbEntity
8
0-6戸当り
6
CONTINUOUS
62
  7
100
AcDbVertex
100
AcDb2dVertex
10
1138.163000000000
20
1509.703000000000
30
0.0
0
VERTEX
5
554
100
AcDbEntity
8
0-6戸当り
6
CONTINUOUS
62
  7
100
AcDbVertex
100
AcDb2dVertex
10
1138.163000000000
20
1520.672000000000
30
0.0
0
VERTEX
5
555
100
AcDbEntity
8
0-6戸当り
6
CONTINUOUS
62
  7
100
AcDbVertex
100
AcDb2dVertex
10
1128.663000000000
20
1526.157000000000
30
0.0
0
SEQEND
5
556
100
AcDbEntity
8
0-6戸当り
0
LINE
5
557
100
AcDbEntity
8
0-5基準線
6
CENTER2
62
7
100
AcDbLine
10
1128.663000000000
20
1532.188000000000
30
0.0
11
1128.663000000000
21
1498.188000000000
31
0.0
0
LINE
5
558
100
AcDbEntity
8
0-5基準線
6
CENTER2
62
7
100
AcDbLine
10
1111.663000000000
20
1515.188000000000
30
0.0
11
1145.663000000000
21
1515.188000000000
31
0.0
0
LINE
5
559
100
AcDbEntity
8
0-6戸当り
6
CONTINUOUS
62
7
100
AcDbLine
10
1599.163000000000
20
1520.672000000000
30
0.0
11
1608.663000000000
21
1526.157000000000
31
0.0
0
LINE
5
55a
100
AcDbEntity
8
0-6戸当り
6
CONTINUOUS
62
7
100
AcDbLine
10
1599.163000000000
20
1520.672000000000
30
0.0
11
1599.163000000000
21
1509.703000000000
31
0.0
0
LINE
5
55b
100
AcDbEntity
8
0-6戸当り
6
CONTINUOUS
62
7
100
AcDbLine
10
1608.663000000000
20
1504.218000000000
30
0.0
11
1599.163000000000
21
1509.703000000000
31
0.0
0
POLYLINE
5
55c
100
AcDbEntity
8
0-6戸当り
6
CONTINUOUS
62
  7
100
AcDb2dPolyline
66
1
10
0.0
20
0.0
30
0.0
70
0
0
VERTEX
5
55d
100
AcDbEntity
8
0-6戸当り
6
CONTINUOUS
62
  7
100
AcDbVertex
100
AcDb2dVertex
10
1608.663000000000
20
1504.218000000000
30
0.0
0
VERTEX
5
55e
100
AcDbEntity
8
0-6戸当り
6
CONTINUOUS
62
  7
100
AcDbVertex
100
AcDb2dVertex
10
1618.163000000000
20
1509.703000000000
30
0.0
0
VERTEX
5
55f
100
AcDbEntity
8
0-6戸当り
6
CONTINUOUS
62
  7
100
AcDbVertex
100
AcDb2dVertex
10
1618.163000000000
20
1520.672000000000
30
0.0
0
VERTEX
5
560
100
AcDbEntity
8
0-6戸当り
6
CONTINUOUS
62
  7
100
AcDbVertex
100
AcDb2dVertex
10
1608.663000000000
20
1526.157000000000
30
0.0
0
SEQEND
5
561
100
AcDbEntity
8
0-6戸当り
0
LINE
5
562
100
AcDbEntity
8
0-5基準線
6
CENTER2
62
7
100
AcDbLine
10
1608.663000000000
20
1532.188000000000
30
0.0
11
1608.663000000000
21
1498.188000000000
31
0.0
0
LINE
5
563
100
AcDbEntity
8
0-5基準線
6
CENTER2
62
7
100
AcDbLine
10
1591.663000000000
20
1515.188000000000
30
0.0
11
1625.663000000000
21
1515.188000000000
31
0.0
0
LINE
5
564
100
AcDbEntity
8
0-6戸当り
6
CONTINUOUS
62
7
100
AcDbLine
10
1468.163000000000
20
1520.672000000000
30
0.0
11
1458.663000000000
21
1526.157000000000
31
0.0
0
LINE
5
565
100
AcDbEntity
8
0-6戸当り
6
CONTINUOUS
62
7
100
AcDbLine
10
1468.163000000000
20
1520.672000000000
30
0.0
11
1468.163000000000
21
1509.703000000000
31
0.0
0
LINE
5
566
100
AcDbEntity
8
0-6戸当り
6
CONTINUOUS
62
7
100
AcDbLine
10
1458.663000000000
20
1504.218000000000
30
0.0
11
1468.163000000000
21
1509.703000000000
31
0.0
0
POLYLINE
5
567
100
AcDbEntity
8
0-6戸当り
6
CONTINUOUS
62
  7
100
AcDb2dPolyline
66
1
10
0.0
20
0.0
30
0.0
70
0
0
VERTEX
5
568
100
AcDbEntity
8
0-6戸当り
6
CONTINUOUS
62
  7
100
AcDbVertex
100
AcDb2dVertex
10
1458.663000000000
20
1504.218000000000
30
0.0
0
VERTEX
5
569
100
AcDbEntity
8
0-6戸当り
6
CONTINUOUS
62
  7
100
AcDbVertex
100
AcDb2dVertex
10
1449.163000000000
20
1509.703000000000
30
0.0
0
VERTEX
5
56a
100
AcDbEntity
8
0-6戸当り
6
CONTINUOUS
62
  7
100
AcDbVertex
100
AcDb2dVertex
10
1449.163000000000
20
1520.672000000000
30
0.0
0
VERTEX
5
56b
100
AcDbEntity
8
0-6戸当り
6
CONTINUOUS
62
  7
100
AcDbVertex
100
AcDb2dVertex
10
1458.663000000000
20
1526.157000000000
30
0.0
0
SEQEND
5
56c
100
AcDbEntity
8
0-6戸当り
0
LINE
5
56d
100
AcDbEntity
8
0-5基準線
6
CENTER2
62
7
100
AcDbLine
10
1458.663000000000
20
1532.188000000000
30
0.0
11
1458.663000000000
21
1498.188000000000
31
0.0
0
LINE
5
56e
100
AcDbEntity
8
0-5基準線
6
CENTER2
62
7
100
AcDbLine
10
1475.663000000000
20
1515.188000000000
30
0.0
11
1441.663000000000
21
1515.188000000000
31
0.0
0
LINE
5
56f
100
AcDbEntity
8
0-8寸法
6
CONTINUOUS
62
4
100
AcDbLine
10
593.663000000000
20
585.188000000000
30
0.0
11
588.487000000000
21
565.869000000000
31
0.0
0
LINE
5
570
100
AcDbEntity
8
0-8寸法
6
CONTINUOUS
62
4
100
AcDbLine
10
593.663000000000
20
585.188000000000
30
0.0
11
598.839000000000
21
565.869000000000
31
0.0
0
LINE
5
571
100
AcDbEntity
8
0-8寸法
6
CONTINUOUS
62
4
100
AcDbLine
10
593.663000000000
20
605.187000000000
30
0.0
11
593.663000000000
21
510.042000000000
31
0.0
0
LINE
5
572
100
AcDbEntity
8
0-8寸法
6
CONTINUOUS
62
4
100
AcDbLine
10
493.663000000000
20
585.188000000000
30
0.0
11
493.663000000000
21
1535.188000000000
31
0.0
0
LINE
5
573
100
AcDbEntity
8
0-8寸法
6
CONTINUOUS
62
4
100
AcDbLine
10
493.663000000000
20
585.188000000000
30
0.0
11
488.487000000000
21
604.506000000000
31
0.0
0
LINE
5
574
100
AcDbEntity
8
0-8寸法
6
CONTINUOUS
62
4
100
AcDbLine
10
493.663000000000
20
585.188000000000
30
0.0
11
498.839000000000
21
604.506000000000
31
0.0
0
LINE
5
575
100
AcDbEntity
8
0-8寸法
6
CONTINUOUS
62
4
100
AcDbLine
10
493.663000000000
20
1535.188000000000
30
0.0
11
488.487000000000
21
1515.869000000000
31
0.0
0
LINE
5
576
100
AcDbEntity
8
0-8寸法
6
CONTINUOUS
62
4
100
AcDbLine
10
493.663000000000
20
1535.188000000000
30
0.0
11
498.839000000000
21
1515.869000000000
31
0.0
0
LINE
5
577
100
AcDbEntity
8
0-6戸当り
6
CONTINUOUS
62
3
100
AcDbLine
10
2572.695000000000
20
1502.188000000000
30
0.0
11
2572.695000000000
21
1528.188000000000
31
0.0
0
LINE
5
578
100
AcDbEntity
8
0-6戸当り
6
CONTINUOUS
62
2
100
AcDbLine
10
2572.695000000000
20
1502.188000000000
30
0.0
11
2575.095000000000
21
1502.188000000000
31
0.0
0
LINE
5
579
100
AcDbEntity
8
0-6戸当り
6
CONTINUOUS
62
2
100
AcDbLine
10
2572.695000000000
20
1528.188000000000
30
0.0
11
2575.095000000000
21
1528.188000000000
31
0.0
0
LINE
5
57a
100
AcDbEntity
8
0-8寸法
6
CONTINUOUS
62
4
100
AcDbLine
10
2887.095000000000
20
585.188000000000
30
0.0
11
2887.095000000000
21
685.188000000000
31
0.0
0
LINE
5
57b
100
AcDbEntity
8
0-8寸法
6
CONTINUOUS
62
4
100
AcDbLine
10
2887.095000000000
20
585.188000000000
30
0.0
11
2881.918000000000
21
604.506000000000
31
0.0
0
LINE
5
57c
100
AcDbEntity
8
0-8寸法
6
CONTINUOUS
62
4
100
AcDbLine
10
2887.095000000000
20
585.188000000000
30
0.0
11
2892.271000000000
21
604.506000000000
31
0.0
0
LINE
5
57d
100
AcDbEntity
8
0-8寸法
6
CONTINUOUS
62
4
100
AcDbLine
10
2887.095000000000
20
685.188000000000
30
0.0
11
2881.918000000000
21
665.870000000000
31
0.0
0
LINE
5
57e
100
AcDbEntity
8
0-8寸法
6
CONTINUOUS
62
4
100
AcDbLine
10
2887.095000000000
20
685.188000000000
30
0.0
11
2892.271000000000
21
665.870000000000
31
0.0
0
LINE
5
57f
100
AcDbEntity
8
0-8寸法
6
CONTINUOUS
62
4
100
AcDbLine
10
2887.095000000000
20
1385.188000000000
30
0.0
11
2887.095000000000
21
1535.188000000000
31
0.0
0
LINE
5
580
100
AcDbEntity
8
0-8寸法
6
CONTINUOUS
62
4
100
AcDbLine
10
2887.095000000000
20
1385.188000000000
30
0.0
11
2881.918000000000
21
1404.506000000000
31
0.0
0
LINE
5
581
100
AcDbEntity
8
0-8寸法
6
CONTINUOUS
62
4
100
AcDbLine
10
2887.095000000000
20
1385.188000000000
30
0.0
11
2892.271000000000
21
1404.506000000000
31
0.0
0
LINE
5
582
100
AcDbEntity
8
0-8寸法
6
CONTINUOUS
62
4
100
AcDbLine
10
2887.095000000000
20
1535.188000000000
30
0.0
11
2881.918000000000
21
1515.869000000000
31
0.0
0
LINE
5
583
100
AcDbEntity
8
0-8寸法
6
CONTINUOUS
62
4
100
AcDbLine
10
2887.095000000000
20
1535.188000000000
30
0.0
11
2892.271000000000
21
1515.869000000000
31
0.0
0
LINE
5
584
100
AcDbEntity
8
0-8寸法
6
CONTINUOUS
62
4
100
AcDbLine
10
2591.774000000000
20
1535.188000000000
30
0.0
11
2897.095000000000
21
1535.188000000000
31
0.0
0
LINE
5
585
100
AcDbEntity
8
0-8寸法
6
CONTINUOUS
62
4
100
AcDbLine
10
2591.774000000000
20
585.188000000000
30
0.0
11
2897.095000000000
21
585.188000000000
31
0.0
0
LINE
5
586
100
AcDbEntity
8
0-8寸法
6
CONTINUOUS
62
4
100
AcDbLine
10
2575.095000000000
20
1085.188000000000
30
0.0
11
2594.413000000000
21
1090.364000000000
31
0.0
0
LINE
5
587
100
AcDbEntity
8
0-8寸法
6
CONTINUOUS
62
4
100
AcDbLine
10
2575.095000000000
20
1085.188000000000
30
0.0
11
2594.413000000000
21
1080.011000000000
31
0.0
0
LINE
5
588
100
AcDbEntity
8
0-8寸法
6
CONTINUOUS
62
4
100
AcDbLine
10
2555.094000000000
20
1085.188000000000
30
0.0
11
2535.776000000000
21
1090.364000000000
31
0.0
0
LINE
5
589
100
AcDbEntity
8
0-8寸法
6
CONTINUOUS
62
4
100
AcDbLine
10
2555.094000000000
20
1085.188000000000
30
0.0
11
2535.776000000000
21
1080.011000000000
31
0.0
0
LINE
5
58a
100
AcDbEntity
8
0-3RC
6
CONTINUOUS
62
6
100
AcDbLine
10
2587.095000000000
20
1076.115000000000
30
0.0
11
2587.095000000000
21
485.188000000000
31
0.0
0
LINE
5
58b
100
AcDbEntity
8
0-6戸当り
6
CONTINUOUS
62
6
100
AcDbLine
10
2575.095000000000
20
1169.454000000000
30
0.0
11
2575.095000000000
21
585.188000000000
31
0.0
0
LINE
5
58c
100
AcDbEntity
8
0-6戸当り
6
CONTINUOUS
62
6
100
AcDbLine
10
2575.095000000000
20
1535.188000000000
30
0.0
11
2575.095000000000
21
1202.005000000000
31
0.0
0
LINE
5
58d
100
AcDbEntity
8
0-8寸法
6
CONTINUOUS
62
4
100
AcDbLine
10
1908.772000000000
20
235.188000000000
30
0.0
11
2452.095000000000
21
235.188000000000
31
0.0
0
LINE
5
58e
100
AcDbEntity
8
0-8寸法
6
CONTINUOUS
62
4
100
AcDbLine
10
978.663000000000
20
1660.188000000000
30
0.0
11
1128.663000000000
21
1660.188000000000
31
0.0
0
LINE
5
58f
100
AcDbEntity
8
0-8寸法
6
CONTINUOUS
62
4
100
AcDbLine
10
978.663000000000
20
1544.457000000000
30
0.0
11
978.663000000000
21
1670.188000000000
31
0.0
0
LINE
5
590
100
AcDbEntity
8
0-8寸法
6
CONTINUOUS
62
4
100
AcDbLine
10
1128.663000000000
20
1544.457000000000
30
0.0
11
1128.663000000000
21
1670.188000000000
31
0.0
0
LINE
5
591
100
AcDbEntity
8
0-8寸法
6
CONTINUOUS
62
4
100
AcDbLine
10
978.663000000000
20
1660.188000000000
30
0.0
11
997.982000000000
21
1665.364000000000
31
0.0
0
LINE
5
592
100
AcDbEntity
8
0-8寸法
6
CONTINUOUS
62
4
100
AcDbLine
10
978.663000000000
20
1660.188000000000
30
0.0
11
997.982000000000
21
1655.011000000000
31
0.0
0
LINE
5
593
100
AcDbEntity
8
0-8寸法
6
CONTINUOUS
62
4
100
AcDbLine
10
1128.663000000000
20
1660.188000000000
30
0.0
11
1109.344000000000
21
1665.364000000000
31
0.0
0
LINE
5
594
100
AcDbEntity
8
0-8寸法
6
CONTINUOUS
62
4
100
AcDbLine
10
1128.663000000000
20
1660.188000000000
30
0.0
11
1109.344000000000
21
1655.011000000000
31
0.0
0
LINE
5
595
100
AcDbEntity
8
0-8寸法
6
CONTINUOUS
62
4
100
AcDbLine
10
1053.663000000000
20
1544.457000000000
30
0.0
11
1053.663000000000
21
1647.984000000000
31
0.0
0
LINE
5
596
100
AcDbEntity
8
0-8寸法
6
CONTINUOUS
62
4
100
AcDbLine
10
1053.663000000000
20
1720.339000000000
30
0.0
11
1053.663000000000
21
1770.188000000000
31
0.0
0
LINE
5
597
100
AcDbEntity
8
0-8寸法
6
CONTINUOUS
62
4
100
AcDbLine
10
1608.663000000000
20
1660.188000000000
30
0.0
11
1458.663000000000
21
1660.188000000000
31
0.0
0
LINE
5
598
100
AcDbEntity
8
0-8寸法
6
CONTINUOUS
62
4
100
AcDbLine
10
1608.663000000000
20
1544.457000000000
30
0.0
11
1608.663000000000
21
1670.188000000000
31
0.0
0
LINE
5
599
100
AcDbEntity
8
0-8寸法
6
CONTINUOUS
62
4
100
AcDbLine
10
1608.663000000000
20
1660.188000000000
30
0.0
11
1589.345000000000
21
1665.364000000000
31
0.0
0
LINE
5
59a
100
AcDbEntity
8
0-8寸法
6
CONTINUOUS
62
4
100
AcDbLine
10
1608.663000000000
20
1660.188000000000
30
0.0
11
1589.345000000000
21
1655.011000000000
31
0.0
0
LINE
5
59b
100
AcDbEntity
8
0-8寸法
6
CONTINUOUS
62
4
100
AcDbLine
10
1458.663000000000
20
1660.188000000000
30
0.0
11
1477.982000000000
21
1665.364000000000
31
0.0
0
LINE
5
59c
100
AcDbEntity
8
0-8寸法
6
CONTINUOUS
62
4
100
AcDbLine
10
1458.663000000000
20
1660.188000000000
30
0.0
11
1477.982000000000
21
1655.011000000000
31
0.0
0
LINE
5
59d
100
AcDbEntity
8
0-8寸法
6
CONTINUOUS
62
4
100
AcDbLine
10
1533.663000000000
20
1544.457000000000
30
0.0
11
1533.663000000000
21
1647.984000000000
31
0.0
0
LINE
5
59e
100
AcDbEntity
8
0-8寸法
6
CONTINUOUS
62
4
100
AcDbLine
10
1533.663000000000
20
1720.339000000000
30
0.0
11
1533.663000000000
21
1770.188000000000
31
0.0
0
LINE
5
59f
100
AcDbEntity
8
0-8寸法
6
CONTINUOUS
62
4
100
AcDbLine
10
1458.663000000000
20
1544.457000000000
30
0.0
11
1458.663000000000
21
1670.188000000000
31
0.0
0
LINE
5
5a0
100
AcDbEntity
8
0-6戸当り
6
CONTINUOUS
62
6
100
AcDbLine
10
843.663000000000
20
2342.647000000000
30
0.0
11
843.663000000000
21
2354.647000000000
31
0.0
0
LINE
5
5a1
100
AcDbEntity
8
0-6戸当り
6
CONTINUOUS
62
7
100
AcDbLine
10
843.663000000000
20
2342.647000000000
30
0.0
11
1743.663000000000
21
2342.647000000000
31
0.0
0
LINE
5
5a2
100
AcDbEntity
8
0-6戸当り
6
CONTINUOUS
62
6
100
AcDbLine
10
1743.663000000000
20
2342.647000000000
30
0.0
11
1743.663000000000
21
2354.647000000000
31
0.0
0
LINE
5
5a3
100
AcDbEntity
8
0-6戸当り
6
CONTINUOUS
62
2
100
AcDbLine
10
1718.663000000000
20
2358.849000000000
30
0.0
11
1716.163000000000
21
2388.361000000000
31
0.0
0
LINE
5
5a4
100
AcDbEntity
8
0-6戸当り
6
CONTINUOUS
62
2
100
AcDbLine
10
1723.663000000000
20
2358.849000000000
30
0.0
11
1721.163000000000
21
2388.361000000000
31
0.0
0
LINE
5
5a5
100
AcDbEntity
8
0-6戸当り
6
CONTINUOUS
62
2
100
AcDbLine
10
1718.663000000000
20
2358.849000000000
30
0.0
11
1728.663000000000
21
2358.849000000000
31
0.0
0
LINE
5
5a6
100
AcDbEntity
8
0-6戸当り
6
CONTINUOUS
62
2
100
AcDbLine
10
1718.306000000000
20
2363.065000000000
30
0.0
11
1723.306000000000
21
2363.065000000000
31
0.0
0
LINE
5
5a7
100
AcDbEntity
8
0-6戸当り
6
CONTINUOUS
62
2
100
AcDbLine
10
1717.949000000000
20
2367.281000000000
30
0.0
11
1722.949000000000
21
2367.281000000000
31
0.0
0
LINE
5
5a8
100
AcDbEntity
8
0-6戸当り
6
CONTINUOUS
62
2
100
AcDbLine
10
1717.592000000000
20
2371.497000000000
30
0.0
11
1722.591000000000
21
2371.497000000000
31
0.0
0
LINE
5
5a9
100
AcDbEntity
8
0-6戸当り
6
CONTINUOUS
62
2
100
AcDbLine
10
1717.234000000000
20
2375.713000000000
30
0.0
11
1722.234000000000
21
2375.713000000000
31
0.0
0
LINE
5
5aa
100
AcDbEntity
8
0-6戸当り
6
CONTINUOUS
62
2
100
AcDbLine
10
1716.877000000000
20
2379.929000000000
30
0.0
11
1721.878000000000
21
2379.929000000000
31
0.0
0
LINE
5
5ab
100
AcDbEntity
8
0-6戸当り
6
CONTINUOUS
62
2
100
AcDbLine
10
1716.520000000000
20
2384.145000000000
30
0.0
11
1721.521000000000
21
2384.145000000000
31
0.0
0
POLYLINE
5
5ac
100
AcDbEntity
8
0-6戸当り
6
CONTINUOUS
62
  2
100
AcDb2dPolyline
66
1
10
0.0
20
0.0
30
0.0
70
0
0
VERTEX
5
5ad
100
AcDbEntity
8
0-6戸当り
6
CONTINUOUS
62
  2
100
AcDbVertex
100
AcDb2dVertex
10
1728.663000000000
20
2358.849000000000
30
0.0
0
VERTEX
5
5ae
100
AcDbEntity
8
0-6戸当り
6
CONTINUOUS
62
  2
100
AcDbVertex
100
AcDb2dVertex
10
1731.163000000000
20
2388.361000000000
30
0.0
0
VERTEX
5
5af
100
AcDbEntity
8
0-6戸当り
6
CONTINUOUS
62
  2
100
AcDbVertex
100
AcDb2dVertex
10
1726.163000000000
20
2388.361000000000
30
0.0
0
SEQEND
5
5b0
100
AcDbEntity
8
0-6戸当り
0
LINE
5
5b1
100
AcDbEntity
8
0-6戸当り
6
CONTINUOUS
62
2
100
AcDbLine
10
1723.663000000000
20
2358.849000000000
30
0.0
11
1726.163000000000
21
2388.361000000000
31
0.0
0
LINE
5
5b2
100
AcDbEntity
8
0-6戸当り
6
CONTINUOUS
62
2
100
AcDbLine
10
1729.020000000000
20
2363.065000000000
30
0.0
11
1724.020000000000
21
2363.065000000000
31
0.0
0
LINE
5
5b3
100
AcDbEntity
8
0-6戸当り
6
CONTINUOUS
62
2
100
AcDbLine
10
1729.377000000000
20
2367.281000000000
30
0.0
11
1724.377000000000
21
2367.281000000000
31
0.0
0
LINE
5
5b4
100
AcDbEntity
8
0-6戸当り
6
CONTINUOUS
62
2
100
AcDbLine
10
1729.734000000000
20
2371.497000000000
30
0.0
11
1724.734000000000
21
2371.497000000000
31
0.0
0
LINE
5
5b5
100
AcDbEntity
8
0-6戸当り
6
CONTINUOUS
62
2
100
AcDbLine
10
1730.091000000000
20
2375.713000000000
30
0.0
11
1725.091000000000
21
2375.713000000000
31
0.0
0
LINE
5
5b6
100
AcDbEntity
8
0-6戸当り
6
CONTINUOUS
62
2
100
AcDbLine
10
1730.448000000000
20
2379.929000000000
30
0.0
11
1725.449000000000
21
2379.929000000000
31
0.0
0
LINE
5
5b7
100
AcDbEntity
8
0-6戸当り
6
CONTINUOUS
62
2
100
AcDbLine
10
1730.806000000000
20
2384.145000000000
30
0.0
11
1725.806000000000
21
2384.145000000000
31
0.0
0
LINE
5
5b8
100
AcDbEntity
8
0-6戸当り
6
CONTINUOUS
62
3
100
AcDbLine
10
1712.663000000000
20
2341.047000000000
30
0.0
11
1712.663000000000
21
2342.647000000000
31
0.0
0
LINE
5
5b9
100
AcDbEntity
8
0-6戸当り
6
CONTINUOUS
62
3
100
AcDbLine
10
1734.663000000000
20
2341.047000000000
30
0.0
11
1734.663000000000
21
2342.647000000000
31
0.0
0
LINE
5
5ba
100
AcDbEntity
8
0-6戸当り
6
CONTINUOUS
62
7
100
AcDbLine
10
1715.163000000000
20
2333.047000000000
30
0.0
11
1713.848000000000
21
2333.806000000000
31
0.0
0
POLYLINE
5
5bb
100
AcDbEntity
8
0-6戸当り
6
CONTINUOUS
62
  7
100
AcDb2dPolyline
66
1
10
0.0
20
0.0
30
0.0
70
0
0
VERTEX
5
5bc
100
AcDbEntity
8
0-6戸当り
6
CONTINUOUS
62
  7
100
AcDbVertex
100
AcDb2dVertex
10
1715.163000000000
20
2333.047000000000
30
0.0
0
VERTEX
5
5bd
100
AcDbEntity
8
0-6戸当り
6
CONTINUOUS
62
  7
100
AcDbVertex
100
AcDb2dVertex
10
1732.163000000000
20
2333.047000000000
30
0.0
0
VERTEX
5
5be
100
AcDbEntity
8
0-6戸当り
6
CONTINUOUS
62
  7
100
AcDbVertex
100
AcDb2dVertex
10
1733.478000000000
20
2333.806000000000
30
0.0
0
SEQEND
5
5bf
100
AcDbEntity
8
0-6戸当り
0
LINE
5
5c0
100
AcDbEntity
8
0-6戸当り
6
CONTINUOUS
62
7
100
AcDbLine
10
1733.478000000000
20
2341.047000000000
30
0.0
11
1733.478000000000
21
2333.806000000000
31
0.0
0
LINE
5
5c1
100
AcDbEntity
8
0-6戸当り
6
CONTINUOUS
62
7
100
AcDbLine
10
1718.756000000000
20
2341.047000000000
30
0.0
11
1718.756000000000
21
2333.806000000000
31
0.0
0
LINE
5
5c2
100
AcDbEntity
8
0-6戸当り
6
CONTINUOUS
62
7
100
AcDbLine
10
1728.570000000000
20
2341.047000000000
30
0.0
11
1728.570000000000
21
2333.806000000000
31
0.0
0
LINE
5
5c3
100
AcDbEntity
8
0-6戸当り
6
CONTINUOUS
62
7
100
AcDbLine
10
1713.848000000000
20
2341.047000000000
30
0.0
11
1713.848000000000
21
2333.806000000000
31
0.0
0
LINE
5
5c4
100
AcDbEntity
8
0-6戸当り
6
CONTINUOUS
62
3
100
AcDbLine
10
1734.663000000000
20
2341.047000000000
30
0.0
11
1712.663000000000
21
2341.047000000000
31
0.0
0
LINE
5
5c5
100
AcDbEntity
8
0-6戸当り
6
CONTINUOUS
62
3
100
AcDbLine
10
1728.663000000000
20
2333.047000000000
30
0.0
11
1728.663000000000
21
2328.361000000000
31
0.0
0
LINE
5
5c6
100
AcDbEntity
8
0-6戸当り
6
CONTINUOUS
62
3
100
AcDbLine
10
1718.663000000000
20
2333.047000000000
30
0.0
11
1718.663000000000
21
2328.361000000000
31
0.0
0
LINE
5
5c7
100
AcDbEntity
8
0-6戸当り
6
CONTINUOUS
62
4
100
AcDbLine
10
1727.663000000000
20
2333.047000000000
30
0.0
11
1727.663000000000
21
2328.130000000000
31
0.0
0
LINE
5
5c8
100
AcDbEntity
8
0-6戸当り
6
CONTINUOUS
62
4
100
AcDbLine
10
1719.663000000000
20
2333.047000000000
30
0.0
11
1719.663000000000
21
2328.130000000000
31
0.0
0
LINE
5
5c9
100
AcDbEntity
8
0-6戸当り
6
CONTINUOUS
62
3
100
AcDbLine
10
1728.663000000000
20
2328.361000000000
30
0.0
11
1718.663000000000
21
2328.361000000000
31
0.0
0
LINE
5
5ca
100
AcDbEntity
8
0-6戸当り
6
CONTINUOUS
62
2
100
AcDbLine
10
1716.163000000000
20
2388.361000000000
30
0.0
11
1721.163000000000
21
2388.361000000000
31
0.0
0
LINE
5
5cb
100
AcDbEntity
8
0-6戸当り
6
CONTINUOUS
62
2
100
AcDbLine
10
1718.663000000000
20
2354.647000000000
30
0.0
11
1718.663000000000
21
2358.849000000000
31
0.0
0
LINE
5
5cc
100
AcDbEntity
8
0-6戸当り
6
CONTINUOUS
62
2
100
AcDbLine
10
1728.663000000000
20
2354.647000000000
30
0.0
11
1728.663000000000
21
2358.849000000000
31
0.0
0
LINE
5
5cd
100
AcDbEntity
8
0-5基準線
6
CENTER2
62
7
100
AcDbLine
10
1723.663000000000
20
2324.474000000000
30
0.0
11
1723.663000000000
21
2393.430000000000
31
0.0
0
LINE
5
5ce
100
AcDbEntity
8
0-6戸当り
6
CONTINUOUS
62
3
100
AcDbLine
10
874.663000000000
20
2341.047000000000
30
0.0
11
874.663000000000
21
2342.647000000000
31
0.0
0
LINE
5
5cf
100
AcDbEntity
8
0-6戸当り
6
CONTINUOUS
62
3
100
AcDbLine
10
852.662000000000
20
2341.047000000000
30
0.0
11
852.662000000000
21
2342.647000000000
31
0.0
0
LINE
5
5d0
100
AcDbEntity
8
0-6戸当り
6
CONTINUOUS
62
7
100
AcDbLine
10
872.163000000000
20
2333.047000000000
30
0.0
11
873.478000000000
21
2333.806000000000
31
0.0
0
POLYLINE
5
5d1
100
AcDbEntity
8
0-6戸当り
6
CONTINUOUS
62
  7
100
AcDb2dPolyline
66
1
10
0.0
20
0.0
30
0.0
70
0
0
VERTEX
5
5d2
100
AcDbEntity
8
0-6戸当り
6
CONTINUOUS
62
  7
100
AcDbVertex
100
AcDb2dVertex
10
872.163000000000
20
2333.047000000000
30
0.0
0
VERTEX
5
5d3
100
AcDbEntity
8
0-6戸当り
6
CONTINUOUS
62
  7
100
AcDbVertex
100
AcDb2dVertex
10
855.163000000000
20
2333.047000000000
30
0.0
0
VERTEX
5
5d4
100
AcDbEntity
8
0-6戸当り
6
CONTINUOUS
62
  7
100
AcDbVertex
100
AcDb2dVertex
10
853.848000000000
20
2333.806000000000
30
0.0
0
SEQEND
5
5d5
100
AcDbEntity
8
0-6戸当り
0
LINE
5
5d6
100
AcDbEntity
8
0-6戸当り
6
CONTINUOUS
62
7
100
AcDbLine
10
853.848000000000
20
2341.047000000000
30
0.0
11
853.848000000000
21
2333.806000000000
31
0.0
0
LINE
5
5d7
100
AcDbEntity
8
0-6戸当り
6
CONTINUOUS
62
7
100
AcDbLine
10
868.570000000000
20
2341.047000000000
30
0.0
11
868.570000000000
21
2333.806000000000
31
0.0
0
LINE
5
5d8
100
AcDbEntity
8
0-6戸当り
6
CONTINUOUS
62
7
100
AcDbLine
10
858.755000000000
20
2341.047000000000
30
0.0
11
858.755000000000
21
2333.806000000000
31
0.0
0
LINE
5
5d9
100
AcDbEntity
8
0-6戸当り
6
CONTINUOUS
62
7
100
AcDbLine
10
873.478000000000
20
2341.047000000000
30
0.0
11
873.478000000000
21
2333.806000000000
31
0.0
0
LINE
5
5da
100
AcDbEntity
8
0-6戸当り
6
CONTINUOUS
62
3
100
AcDbLine
10
852.662000000000
20
2341.047000000000
30
0.0
11
874.663000000000
21
2341.047000000000
31
0.0
0
LINE
5
5db
100
AcDbEntity
8
0-6戸当り
6
CONTINUOUS
62
3
100
AcDbLine
10
858.663000000000
20
2333.047000000000
30
0.0
11
858.663000000000
21
2328.361000000000
31
0.0
0
LINE
5
5dc
100
AcDbEntity
8
0-6戸当り
6
CONTINUOUS
62
3
100
AcDbLine
10
868.663000000000
20
2333.047000000000
30
0.0
11
868.663000000000
21
2328.361000000000
31
0.0
0
LINE
5
5dd
100
AcDbEntity
8
0-6戸当り
6
CONTINUOUS
62
4
100
AcDbLine
10
859.663000000000
20
2333.047000000000
30
0.0
11
859.663000000000
21
2328.130000000000
31
0.0
0
LINE
5
5de
100
AcDbEntity
8
0-6戸当り
6
CONTINUOUS
62
4
100
AcDbLine
10
867.663000000000
20
2333.047000000000
30
0.0
11
867.663000000000
21
2328.130000000000
31
0.0
0
LINE
5
5df
100
AcDbEntity
8
0-6戸当り
6
CONTINUOUS
62
3
100
AcDbLine
10
858.663000000000
20
2328.361000000000
30
0.0
11
868.663000000000
21
2328.361000000000
31
0.0
0
LINE
5
5e0
100
AcDbEntity
8
0-5基準線
6
CENTER2
62
7
100
AcDbLine
10
863.663000000000
20
2324.474000000000
30
0.0
11
863.663000000000
21
2393.430000000000
31
0.0
0
LINE
5
5e1
100
AcDbEntity
8
0-8寸法
6
CONTINUOUS
62
4
100
AcDbLine
10
2750.461000000000
20
1385.188000000000
30
0.0
11
2897.095000000000
21
1385.188000000000
31
0.0
0
LINE
5
5e2
100
AcDbEntity
8
0-8寸法
6
CONTINUOUS
62
4
100
AcDbLine
10
2750.461000000000
20
685.188000000000
30
0.0
11
2897.095000000000
21
685.188000000000
31
0.0
0
LINE
5
5e3
100
AcDbEntity
8
0-3RC
6
CONTINUOUS
62
7
100
AcDbLine
10
2575.095000000000
20
1385.188000000000
30
0.0
11
2737.095000000000
21
1385.188000000000
31
0.0
0
LINE
5
5e4
100
AcDbEntity
8
0-3RC
6
CONTINUOUS
62
7
100
AcDbLine
10
2575.095000000000
20
685.188000000000
30
0.0
11
2737.095000000000
21
685.188000000000
31
0.0
0
LINE
5
5e5
100
AcDbEntity
8
0-3RC
6
DOT
62
4
100
AcDbLine
10
943.663000000000
20
2342.647000000000
30
0.0
11
943.663000000000
21
2454.647000000000
31
0.0
0
LINE
5
5e6
100
AcDbEntity
8
0-3RC
6
CONTINUOUS
62
7
100
AcDbLine
10
1643.663000000000
20
2342.647000000000
30
0.0
11
1643.663000000000
21
2454.647000000000
31
0.0
0
LINE
5
5e7
100
AcDbEntity
8
0-8寸法
6
CONTINUOUS
62
4
100
AcDbLine
10
943.663000000000
20
2470.779000000000
30
0.0
11
943.663000000000
21
2664.647000000000
31
0.0
0
LINE
5
5e8
100
AcDbEntity
8
0-5基準線
6
CENTER2
62
7
100
AcDbLine
10
1293.663000000000
20
2454.647000000000
30
0.0
11
1293.663000000000
21
2237.357000000000
31
0.0
0
LINE
5
5e9
100
AcDbEntity
8
0-8寸法
6
CONTINUOUS
62
4
100
AcDbLine
10
843.663000000000
20
2654.647000000000
30
0.0
11
943.663000000000
21
2654.647000000000
31
0.0
0
LINE
5
5ea
100
AcDbEntity
8
0-8寸法
6
CONTINUOUS
62
4
100
AcDbLine
10
843.663000000000
20
2654.647000000000
30
0.0
11
862.981000000000
21
2659.823000000000
31
0.0
0
LINE
5
5eb
100
AcDbEntity
8
0-8寸法
6
CONTINUOUS
62
4
100
AcDbLine
10
843.663000000000
20
2654.647000000000
30
0.0
11
862.981000000000
21
2649.471000000000
31
0.0
0
LINE
5
5ec
100
AcDbEntity
8
0-8寸法
6
CONTINUOUS
62
4
100
AcDbLine
10
943.663000000000
20
2654.647000000000
30
0.0
11
924.344000000000
21
2659.823000000000
31
0.0
0
LINE
5
5ed
100
AcDbEntity
8
0-8寸法
6
CONTINUOUS
62
4
100
AcDbLine
10
943.663000000000
20
2654.647000000000
30
0.0
11
924.344000000000
21
2649.471000000000
31
0.0
0
LINE
5
5ee
100
AcDbEntity
8
0-8寸法
6
CONTINUOUS
62
4
100
AcDbLine
10
1643.663000000000
20
2654.647000000000
30
0.0
11
1743.663000000000
21
2654.647000000000
31
0.0
0
LINE
5
5ef
100
AcDbEntity
8
0-8寸法
6
CONTINUOUS
62
4
100
AcDbLine
10
1643.663000000000
20
2470.779000000000
30
0.0
11
1643.663000000000
21
2664.647000000000
31
0.0
0
LINE
5
5f0
100
AcDbEntity
8
0-8寸法
6
CONTINUOUS
62
4
100
AcDbLine
10
1643.663000000000
20
2654.647000000000
30
0.0
11
1662.982000000000
21
2659.823000000000
31
0.0
0
LINE
5
5f1
100
AcDbEntity
8
0-8寸法
6
CONTINUOUS
62
4
100
AcDbLine
10
1643.663000000000
20
2654.647000000000
30
0.0
11
1662.982000000000
21
2649.471000000000
31
0.0
0
LINE
5
5f2
100
AcDbEntity
8
0-8寸法
6
CONTINUOUS
62
4
100
AcDbLine
10
1743.663000000000
20
2654.647000000000
30
0.0
11
1724.344000000000
21
2659.823000000000
31
0.0
0
LINE
5
5f3
100
AcDbEntity
8
0-8寸法
6
CONTINUOUS
62
4
100
AcDbLine
10
1743.663000000000
20
2654.647000000000
30
0.0
11
1724.344000000000
21
2649.471000000000
31
0.0
0
LINE
5
5f4
100
AcDbEntity
8
0-8寸法
6
CONTINUOUS
62
4
100
AcDbLine
10
843.663000000000
20
2368.495000000000
30
0.0
11
843.663000000000
21
2664.647000000000
31
0.0
0
LINE
5
5f5
100
AcDbEntity
8
0-8寸法
6
CONTINUOUS
62
4
100
AcDbLine
10
1743.663000000000
20
2368.495000000000
30
0.0
11
1743.663000000000
21
2664.647000000000
31
0.0
0
LINE
5
5f6
100
AcDbEntity
8
0-8寸法
6
CONTINUOUS
62
4
100
AcDbLine
10
893.663000000000
20
2060.188000000000
30
0.0
11
1693.663000000000
21
2060.188000000000
31
0.0
0
LINE
5
5f7
100
AcDbEntity
8
0-8寸法
6
CONTINUOUS
62
4
100
AcDbLine
10
893.663000000000
20
2060.188000000000
30
0.0
11
912.982000000000
21
2065.364000000000
31
0.0
0
LINE
5
5f8
100
AcDbEntity
8
0-8寸法
6
CONTINUOUS
62
4
100
AcDbLine
10
893.663000000000
20
2060.188000000000
30
0.0
11
912.982000000000
21
2055.011000000000
31
0.0
0
LINE
5
5f9
100
AcDbEntity
8
0-8寸法
6
CONTINUOUS
62
4
100
AcDbLine
10
1693.663000000000
20
2060.188000000000
30
0.0
11
1674.344000000000
21
2065.364000000000
31
0.0
0
LINE
5
5fa
100
AcDbEntity
8
0-8寸法
6
CONTINUOUS
62
4
100
AcDbLine
10
1693.663000000000
20
2060.188000000000
30
0.0
11
1674.344000000000
21
2055.011000000000
31
0.0
0
LINE
5
5fb
100
AcDbEntity
8
0-8寸法
6
CONTINUOUS
62
4
100
AcDbLine
10
893.663000000000
20
2241.952000000000
30
0.0
11
893.663000000000
21
2050.188000000000
31
0.0
0
LINE
5
5fc
100
AcDbEntity
8
0-8寸法
6
CONTINUOUS
62
4
100
AcDbLine
10
1693.663000000000
20
2241.952000000000
30
0.0
11
1693.663000000000
21
2050.188000000000
31
0.0
0
LINE
5
5fd
100
AcDbEntity
8
0-8寸法
6
CONTINUOUS
62
4
100
AcDbLine
10
2587.095000000000
20
585.188000000000
30
0.0
11
2584.972000000000
21
565.301000000000
31
0.0
0
LINE
5
5fe
100
AcDbEntity
8
0-8寸法
6
CONTINUOUS
62
4
100
AcDbLine
10
2587.095000000000
20
585.188000000000
30
0.0
11
2575.313000000000
21
569.026000000000
31
0.0
0
LINE
5
5ff
100
AcDbEntity
8
0-9扉体
6
CONTINUOUS
62
3
100
AcDbLine
10
1293.663000000000
20
2330.647000000000
30
0.0
11
1628.227000000000
21
2330.647000000000
31
0.0
0
LINE
5
600
100
AcDbEntity
8
0-9扉体
6
CONTINUOUS
62
3
100
AcDbLine
10
1633.663000000000
20
2330.647000000000
30
0.0
11
1673.663000000000
21
2330.647000000000
31
0.0
0
LINE
5
601
100
AcDbEntity
8
0-9扉体
6
CONTINUOUS
62
3
100
AcDbLine
10
1293.663000000000
20
2336.647000000000
30
0.0
11
1628.227000000000
21
2336.647000000000
31
0.0
0
LINE
5
602
100
AcDbEntity
8
0-9扉体
6
CONTINUOUS
62
3
100
AcDbLine
10
1634.663000000000
20
2336.647000000000
30
0.0
11
1672.663000000000
21
2336.647000000000
31
0.0
0
LINE
5
603
100
AcDbEntity
8
0-6戸当り
6
CONTINUOUS
62
3
100
AcDbLine
10
1141.663000000000
20
2340.247000000000
30
0.0
11
1115.663000000000
21
2340.247000000000
31
0.0
0
LINE
5
604
100
AcDbEntity
8
0-6戸当り
6
CONTINUOUS
62
2
100
AcDbLine
10
1141.663000000000
20
2340.247000000000
30
0.0
11
1141.663000000000
21
2342.647000000000
31
0.0
0
LINE
5
605
100
AcDbEntity
8
0-6戸当り
6
CONTINUOUS
62
2
100
AcDbLine
10
1115.663000000000
20
2340.247000000000
30
0.0
11
1115.663000000000
21
2342.647000000000
31
0.0
0
LINE
5
606
100
AcDbEntity
8
0-5基準線
6
CENTER2
62
7
100
AcDbLine
10
1128.663000000000
20
2342.647000000000
30
0.0
11
1128.663000000000
21
2458.098000000000
31
0.0
0
LINE
5
607
100
AcDbEntity
8
0-6戸当り
6
CONTINUOUS
62
3
100
AcDbLine
10
965.663000000000
20
2340.247000000000
30
0.0
11
991.663000000000
21
2340.247000000000
31
0.0
0
LINE
5
608
100
AcDbEntity
8
0-6戸当り
6
CONTINUOUS
62
2
100
AcDbLine
10
965.663000000000
20
2340.247000000000
30
0.0
11
965.663000000000
21
2342.647000000000
31
0.0
0
LINE
5
609
100
AcDbEntity
8
0-6戸当り
6
CONTINUOUS
62
2
100
AcDbLine
10
991.663000000000
20
2340.247000000000
30
0.0
11
991.663000000000
21
2342.647000000000
31
0.0
0
LINE
5
60a
100
AcDbEntity
8
0-5基準線
6
CENTER2
62
7
100
AcDbLine
10
978.663000000000
20
2342.647000000000
30
0.0
11
978.663000000000
21
2458.098000000000
31
0.0
0
LINE
5
60b
100
AcDbEntity
8
0-9扉体
6
CONTINUOUS
62
4
100
AcDbLine
10
888.663000000000
20
2316.647000000000
30
0.0
11
888.663000000000
21
2322.647000000000
31
0.0
0
LINE
5
60c
100
AcDbEntity
8
0-9扉体
6
CONTINUOUS
62
6
100
AcDbLine
10
943.354000000000
20
2322.647000000000
30
0.0
11
963.354000000000
21
2342.647000000000
31
0.0
0
LINE
5
60d
100
AcDbEntity
8
0-9扉体
6
CONTINUOUS
62
6
100
AcDbLine
10
942.069000000000
20
2322.775000000000
30
0.0
11
961.940000000000
21
2342.647000000000
31
0.0
0
LINE
5
60e
100
AcDbEntity
8
0-9扉体
6
CONTINUOUS
62
6
100
AcDbLine
10
1141.345000000000
20
2322.647000000000
30
0.0
11
1161.345000000000
21
2342.647000000000
31
0.0
0
LINE
5
60f
100
AcDbEntity
8
0-9扉体
6
CONTINUOUS
62
6
100
AcDbLine
10
1139.931000000000
20
2322.647000000000
30
0.0
11
1159.931000000000
21
2342.647000000000
31
0.0
0
LINE
5
610
100
AcDbEntity
8
0-9扉体
6
CONTINUOUS
62
6
100
AcDbLine
10
1155.487000000000
20
2322.647000000000
30
0.0
11
1175.487000000000
21
2342.647000000000
31
0.0
0
LINE
5
611
100
AcDbEntity
8
0-9扉体
6
CONTINUOUS
62
6
100
AcDbLine
10
1154.073000000000
20
2322.647000000000
30
0.0
11
1174.073000000000
21
2342.647000000000
31
0.0
0
LINE
5
612
100
AcDbEntity
8
0-9扉体
6
CONTINUOUS
62
6
100
AcDbLine
10
1169.630000000000
20
2322.647000000000
30
0.0
11
1189.630000000000
21
2342.647000000000
31
0.0
0
LINE
5
613
100
AcDbEntity
8
0-9扉体
6
CONTINUOUS
62
6
100
AcDbLine
10
1168.215000000000
20
2322.647000000000
30
0.0
11
1188.215000000000
21
2342.647000000000
31
0.0
0
LINE
5
614
100
AcDbEntity
8
0-9扉体
6
CONTINUOUS
62
6
100
AcDbLine
10
927.798000000000
20
2322.647000000000
30
0.0
11
947.798000000000
21
2342.647000000000
31
0.0
0
LINE
5
615
100
AcDbEntity
8
0-9扉体
6
CONTINUOUS
62
6
100
AcDbLine
10
929.212000000000
20
2322.647000000000
30
0.0
11
949.212000000000
21
2342.647000000000
31
0.0
0
LINE
5
616
100
AcDbEntity
8
0-6戸当り
6
CONTINUOUS
62
3
100
AcDbLine
10
1078.663000000000
20
614.987000000000
30
0.0
11
1087.150000000000
21
610.087000000000
31
0.0
0
LINE
5
617
100
AcDbEntity
8
0-6戸当り
6
CONTINUOUS
62
3
100
AcDbLine
10
1078.663000000000
20
595.387000000000
30
0.0
11
1087.150000000000
21
600.287000000000
31
0.0
0
LINE
5
618
100
AcDbEntity
8
0-6戸当り
6
CONTINUOUS
62
3
100
AcDbLine
10
1087.150000000000
20
610.087000000000
30
0.0
11
1087.150000000000
21
600.287000000000
31
0.0
0
LINE
5
619
100
AcDbEntity
8
0-6戸当り
6
CONTINUOUS
62
3
100
AcDbLine
10
1078.663000000000
20
595.387000000000
30
0.0
11
1070.176000000000
21
600.287000000000
31
0.0
0
LINE
5
61a
100
AcDbEntity
8
0-6戸当り
6
CONTINUOUS
62
3
100
AcDbLine
10
1078.663000000000
20
614.987000000000
30
0.0
11
1070.176000000000
21
610.087000000000
31
0.0
0
LINE
5
61b
100
AcDbEntity
8
0-6戸当り
6
CONTINUOUS
62
3
100
AcDbLine
10
1070.176000000000
20
600.287000000000
30
0.0
11
1070.176000000000
21
610.087000000000
31
0.0
0
LINE
5
61c
100
AcDbEntity
8
0-5基準線
6
CENTER2
62
7
100
AcDbLine
10
1078.663000000000
20
590.187000000000
30
0.0
11
1078.663000000000
21
620.187000000000
31
0.0
0
LINE
5
61d
100
AcDbEntity
8
0-5基準線
6
CENTER2
62
7
100
AcDbLine
10
1093.663000000000
20
605.187000000000
30
0.0
11
1063.663000000000
21
605.187000000000
31
0.0
0
LINE
5
61e
100
AcDbEntity
8
0-6戸当り
6
CONTINUOUS
62
3
100
AcDbLine
10
1293.663000000000
20
614.987000000000
30
0.0
11
1302.150000000000
21
610.087000000000
31
0.0
0
LINE
5
61f
100
AcDbEntity
8
0-6戸当り
6
CONTINUOUS
62
3
100
AcDbLine
10
1293.663000000000
20
595.387000000000
30
0.0
11
1302.150000000000
21
600.287000000000
31
0.0
0
LINE
5
620
100
AcDbEntity
8
0-6戸当り
6
CONTINUOUS
62
3
100
AcDbLine
10
1302.150000000000
20
610.087000000000
30
0.0
11
1302.150000000000
21
600.287000000000
31
0.0
0
LINE
5
621
100
AcDbEntity
8
0-6戸当り
6
CONTINUOUS
62
3
100
AcDbLine
10
1293.663000000000
20
595.387000000000
30
0.0
11
1285.176000000000
21
600.287000000000
31
0.0
0
LINE
5
622
100
AcDbEntity
8
0-6戸当り
6
CONTINUOUS
62
3
100
AcDbLine
10
1293.663000000000
20
614.987000000000
30
0.0
11
1285.176000000000
21
610.087000000000
31
0.0
0
LINE
5
623
100
AcDbEntity
8
0-6戸当り
6
CONTINUOUS
62
3
100
AcDbLine
10
1285.176000000000
20
600.287000000000
30
0.0
11
1285.176000000000
21
610.087000000000
31
0.0
0
LINE
5
624
100
AcDbEntity
8
0-5基準線
6
CENTER2
62
7
100
AcDbLine
10
1308.663000000000
20
605.187000000000
30
0.0
11
1278.663000000000
21
605.187000000000
31
0.0
0
LINE
5
625
100
AcDbEntity
8
0-6戸当り
6
CONTINUOUS
62
3
100
AcDbLine
10
1508.663000000000
20
614.987000000000
30
0.0
11
1517.150000000000
21
610.087000000000
31
0.0
0
LINE
5
626
100
AcDbEntity
8
0-6戸当り
6
CONTINUOUS
62
3
100
AcDbLine
10
1508.663000000000
20
595.387000000000
30
0.0
11
1517.150000000000
21
600.287000000000
31
0.0
0
LINE
5
627
100
AcDbEntity
8
0-6戸当り
6
CONTINUOUS
62
3
100
AcDbLine
10
1517.150000000000
20
610.087000000000
30
0.0
11
1517.150000000000
21
600.287000000000
31
0.0
0
LINE
5
628
100
AcDbEntity
8
0-6戸当り
6
CONTINUOUS
62
3
100
AcDbLine
10
1508.663000000000
20
595.387000000000
30
0.0
11
1500.176000000000
21
600.287000000000
31
0.0
0
LINE
5
629
100
AcDbEntity
8
0-6戸当り
6
CONTINUOUS
62
3
100
AcDbLine
10
1508.663000000000
20
614.987000000000
30
0.0
11
1500.176000000000
21
610.087000000000
31
0.0
0
LINE
5
62a
100
AcDbEntity
8
0-6戸当り
6
CONTINUOUS
62
3
100
AcDbLine
10
1500.176000000000
20
600.287000000000
30
0.0
11
1500.176000000000
21
610.087000000000
31
0.0
0
LINE
5
62b
100
AcDbEntity
8
0-5基準線
6
CENTER2
62
7
100
AcDbLine
10
1508.663000000000
20
590.187000000000
30
0.0
11
1508.663000000000
21
620.187000000000
31
0.0
0
LINE
5
62c
100
AcDbEntity
8
0-5基準線
6
CENTER2
62
7
100
AcDbLine
10
1523.663000000000
20
605.187000000000
30
0.0
11
1493.663000000000
21
605.187000000000
31
0.0
0
LINE
5
62d
100
AcDbEntity
8
0-8寸法
6
CONTINUOUS
62
4
100
AcDbLine
10
863.663000000000
20
335.188000000000
30
0.0
11
1723.663000000000
21
335.188000000000
31
0.0
0
LINE
5
62e
100
AcDbEntity
8
0-8寸法
6
CONTINUOUS
62
4
100
AcDbLine
10
863.663000000000
20
335.188000000000
30
0.0
11
882.981000000000
21
340.364000000000
31
0.0
0
LINE
5
62f
100
AcDbEntity
8
0-8寸法
6
CONTINUOUS
62
4
100
AcDbLine
10
863.663000000000
20
335.188000000000
30
0.0
11
882.981000000000
21
330.011000000000
31
0.0
0
LINE
5
630
100
AcDbEntity
8
0-8寸法
6
CONTINUOUS
62
4
100
AcDbLine
10
1723.663000000000
20
335.188000000000
30
0.0
11
1704.344000000000
21
340.364000000000
31
0.0
0
LINE
5
631
100
AcDbEntity
8
0-8寸法
6
CONTINUOUS
62
4
100
AcDbLine
10
1723.663000000000
20
335.188000000000
30
0.0
11
1704.344000000000
21
330.011000000000
31
0.0
0
LINE
5
632
100
AcDbEntity
8
0-8寸法
6
CONTINUOUS
62
4
100
AcDbLine
10
863.663000000000
20
573.958000000000
30
0.0
11
863.663000000000
21
325.188000000000
31
0.0
0
LINE
5
633
100
AcDbEntity
8
0-8寸法
6
CONTINUOUS
62
4
100
AcDbLine
10
1723.663000000000
20
573.958000000000
30
0.0
11
1723.663000000000
21
325.188000000000
31
0.0
0
LINE
5
634
100
AcDbEntity
8
0-8寸法
6
CONTINUOUS
62
4
100
AcDbLine
10
834.143000000000
20
585.188000000000
30
0.0
11
483.663000000000
21
585.188000000000
31
0.0
0
LINE
5
635
100
AcDbEntity
8
0-8寸法
6
CONTINUOUS
62
4
100
AcDbLine
10
834.143000000000
20
1535.188000000000
30
0.0
11
483.663000000000
21
1535.188000000000
31
0.0
0
LINE
5
636
100
AcDbEntity
8
0-9扉体
6
CONTINUOUS
62
6
100
AcDbLine
10
1631.663000000000
20
2265.147000000000
30
0.0
11
1681.663000000000
21
2265.147000000000
31
0.0
0
LINE
5
637
100
AcDbEntity
8
0-9扉体
6
CONTINUOUS
62
6
100
AcDbLine
10
1687.663000000000
20
2316.647000000000
30
0.0
11
1687.663000000000
21
2271.147000000000
31
0.0
0
LINE
5
638
100
AcDbEntity
8
0-9扉体
6
CONTINUOUS
62
6
100
AcDbLine
10
1628.663000000000
20
2262.147000000000
30
0.0
11
1628.663000000000
21
2256.147000000000
31
0.0
0
LINE
5
639
100
AcDbEntity
8
0-9扉体
6
CONTINUOUS
62
6
100
AcDbLine
10
1693.663000000000
20
2256.147000000000
30
0.0
11
1693.663000000000
21
2316.647000000000
31
0.0
0
LINE
5
63a
100
AcDbEntity
8
0-9扉体
6
CONTINUOUS
62
6
100
AcDbLine
10
893.663000000000
20
2256.147000000000
30
0.0
11
893.663000000000
21
2316.647000000000
31
0.0
0
LINE
5
63b
100
AcDbEntity
8
0-9扉体
6
CONTINUOUS
62
6
100
AcDbLine
10
893.663000000000
20
2256.147000000000
30
0.0
11
1693.663000000000
21
2256.147000000000
31
0.0
0
LINE
5
63c
100
AcDbEntity
8
0-9扉体
6
CONTINUOUS
62
6
100
AcDbLine
10
1297.663000000000
20
2316.647000000000
30
0.0
11
1297.663000000000
21
2256.147000000000
31
0.0
0
LINE
5
63d
100
AcDbEntity
8
0-9扉体
6
DOT
62
6
100
AcDbLine
10
1289.663000000000
20
2316.647000000000
30
0.0
11
1289.663000000000
21
2256.147000000000
31
0.0
0
LINE
5
63e
100
AcDbEntity
8
0-9扉体
6
CONTINUOUS
62
6
100
AcDbLine
10
913.656000000000
20
2322.647000000000
30
0.0
11
933.656000000000
21
2342.647000000000
31
0.0
0
LINE
5
63f
100
AcDbEntity
8
0-9扉体
6
CONTINUOUS
62
6
100
AcDbLine
10
915.070000000000
20
2322.647000000000
30
0.0
11
935.070000000000
21
2342.647000000000
31
0.0
0
LINE
5
640
100
AcDbEntity
8
0-9扉体
6
CONTINUOUS
62
6
100
AcDbLine
10
899.514000000000
20
2322.647000000000
30
0.0
11
919.514000000000
21
2342.647000000000
31
0.0
0
LINE
5
641
100
AcDbEntity
8
0-9扉体
6
CONTINUOUS
62
6
100
AcDbLine
10
901.229000000000
20
2322.948000000000
30
0.0
11
920.928000000000
21
2342.647000000000
31
0.0
0
LINE
5
642
100
AcDbEntity
8
0-9扉体
6
CONTINUOUS
62
6
100
AcDbLine
10
893.789000000000
20
2331.064000000000
30
0.0
11
905.372000000000
21
2342.647000000000
31
0.0
0
LINE
5
643
100
AcDbEntity
8
0-9扉体
6
CONTINUOUS
62
6
100
AcDbLine
10
894.046000000000
20
2329.907000000000
30
0.0
11
906.786000000000
21
2342.647000000000
31
0.0
0
LINE
5
644
100
AcDbEntity
8
0-9扉体
6
CONTINUOUS
62
6
100
AcDbLine
10
1183.772000000000
20
2322.647000000000
30
0.0
11
1203.772000000000
21
2342.647000000000
31
0.0
0
LINE
5
645
100
AcDbEntity
8
0-9扉体
6
CONTINUOUS
62
6
100
AcDbLine
10
1182.358000000000
20
2322.647000000000
30
0.0
11
1202.358000000000
21
2342.647000000000
31
0.0
0
LINE
5
646
100
AcDbEntity
8
0-9扉体
6
CONTINUOUS
62
6
100
AcDbLine
10
1197.914000000000
20
2322.647000000000
30
0.0
11
1217.914000000000
21
2342.647000000000
31
0.0
0
LINE
5
647
100
AcDbEntity
8
0-9扉体
6
CONTINUOUS
62
6
100
AcDbLine
10
1196.500000000000
20
2322.647000000000
30
0.0
11
1216.500000000000
21
2342.647000000000
31
0.0
0
LINE
5
648
100
AcDbEntity
8
0-9扉体
6
CONTINUOUS
62
6
100
AcDbLine
10
1212.056000000000
20
2322.647000000000
30
0.0
11
1232.057000000000
21
2342.647000000000
31
0.0
0
LINE
5
649
100
AcDbEntity
8
0-9扉体
6
CONTINUOUS
62
6
100
AcDbLine
10
1210.642000000000
20
2322.647000000000
30
0.0
11
1230.642000000000
21
2342.647000000000
31
0.0
0
LINE
5
64a
100
AcDbEntity
8
0-9扉体
6
CONTINUOUS
62
6
100
AcDbLine
10
1226.199000000000
20
2322.647000000000
30
0.0
11
1246.199000000000
21
2342.647000000000
31
0.0
0
LINE
5
64b
100
AcDbEntity
8
0-9扉体
6
CONTINUOUS
62
6
100
AcDbLine
10
1224.785000000000
20
2322.647000000000
30
0.0
11
1244.785000000000
21
2342.647000000000
31
0.0
0
LINE
5
64c
100
AcDbEntity
8
0-9扉体
6
CONTINUOUS
62
6
100
AcDbLine
10
1240.341000000000
20
2322.647000000000
30
0.0
11
1260.341000000000
21
2342.647000000000
31
0.0
0
LINE
5
64d
100
AcDbEntity
8
0-9扉体
6
CONTINUOUS
62
6
100
AcDbLine
10
1238.927000000000
20
2322.647000000000
30
0.0
11
1258.927000000000
21
2342.647000000000
31
0.0
0
LINE
5
64e
100
AcDbEntity
8
0-9扉体
6
CONTINUOUS
62
6
100
AcDbLine
10
1254.483000000000
20
2322.647000000000
30
0.0
11
1274.483000000000
21
2342.647000000000
31
0.0
0
LINE
5
64f
100
AcDbEntity
8
0-9扉体
6
CONTINUOUS
62
6
100
AcDbLine
10
1253.069000000000
20
2322.647000000000
30
0.0
11
1273.069000000000
21
2342.647000000000
31
0.0
0
LINE
5
650
100
AcDbEntity
8
0-9扉体
6
CONTINUOUS
62
6
100
AcDbLine
10
1268.626000000000
20
2322.647000000000
30
0.0
11
1288.626000000000
21
2342.647000000000
31
0.0
0
LINE
5
651
100
AcDbEntity
8
0-9扉体
6
CONTINUOUS
62
6
100
AcDbLine
10
1267.211000000000
20
2322.647000000000
30
0.0
11
1287.211000000000
21
2342.647000000000
31
0.0
0
LINE
5
652
100
AcDbEntity
8
0-9扉体
6
CONTINUOUS
62
6
100
AcDbLine
10
1282.768000000000
20
2322.647000000000
30
0.0
11
1293.663000000000
21
2333.542000000000
31
0.0
0
LINE
5
653
100
AcDbEntity
8
0-9扉体
6
CONTINUOUS
62
6
100
AcDbLine
10
1281.354000000000
20
2322.647000000000
30
0.0
11
1293.663000000000
21
2334.956000000000
31
0.0
0
LINE
5
654
100
AcDbEntity
8
0-8寸法
6
CONTINUOUS
62
4
100
AcDbLine
10
2668.785000000000
20
1085.188000000000
30
0.0
11
2523.679000000000
21
1085.188000000000
31
0.0
0
LINE
5
655
100
AcDbEntity
8
0-6戸当り
6
CONTINUOUS
62
3
100
AcDbLine
10
1743.663000000000
20
685.188000000000
30
0.0
11
1698.663000000000
21
685.188000000000
31
0.0
0
LINE
5
656
100
AcDbEntity
8
0-6戸当り
6
CONTINUOUS
62
3
100
AcDbLine
10
888.663000000000
20
685.188000000000
30
0.0
11
843.663000000000
21
685.188000000000
31
0.0
0
LINE
5
657
100
AcDbEntity
8
0-6戸当り
6
CONTINUOUS
62
3
100
AcDbLine
10
843.663000000000
20
1385.188000000000
30
0.0
11
888.663000000000
21
1385.188000000000
31
0.0
0
LINE
5
658
100
AcDbEntity
8
0-6戸当り
6
CONTINUOUS
62
3
100
AcDbLine
10
1698.663000000000
20
1385.188000000000
30
0.0
11
1743.663000000000
21
1385.188000000000
31
0.0
0
LINE
5
659
100
AcDbEntity
8
0-6戸当り
6
CONTINUOUS
62
3
100
AcDbLine
10
863.663000000000
20
829.987000000000
30
0.0
11
872.150000000000
21
825.087000000000
31
0.0
0
LINE
5
65a
100
AcDbEntity
8
0-6戸当り
6
CONTINUOUS
62
3
100
AcDbLine
10
863.663000000000
20
810.387000000000
30
0.0
11
872.150000000000
21
815.287000000000
31
0.0
0
LINE
5
65b
100
AcDbEntity
8
0-6戸当り
6
CONTINUOUS
62
3
100
AcDbLine
10
872.150000000000
20
825.087000000000
30
0.0
11
872.150000000000
21
815.287000000000
31
0.0
0
LINE
5
65c
100
AcDbEntity
8
0-6戸当り
6
CONTINUOUS
62
3
100
AcDbLine
10
863.663000000000
20
810.387000000000
30
0.0
11
855.176000000000
21
815.287000000000
31
0.0
0
LINE
5
65d
100
AcDbEntity
8
0-6戸当り
6
CONTINUOUS
62
3
100
AcDbLine
10
863.663000000000
20
829.987000000000
30
0.0
11
855.176000000000
21
825.087000000000
31
0.0
0
LINE
5
65e
100
AcDbEntity
8
0-6戸当り
6
CONTINUOUS
62
3
100
AcDbLine
10
855.176000000000
20
815.287000000000
30
0.0
11
855.176000000000
21
825.087000000000
31
0.0
0
LINE
5
65f
100
AcDbEntity
8
0-5基準線
6
CENTER2
62
7
100
AcDbLine
10
863.663000000000
20
805.187000000000
30
0.0
11
863.663000000000
21
835.187000000000
31
0.0
0
LINE
5
660
100
AcDbEntity
8
0-5基準線
6
CENTER2
62
7
100
AcDbLine
10
878.663000000000
20
820.187000000000
30
0.0
11
848.663000000000
21
820.187000000000
31
0.0
0
LINE
5
661
100
AcDbEntity
8
0-6戸当り
6
CONTINUOUS
62
3
100
AcDbLine
10
863.663000000000
20
1044.987000000000
30
0.0
11
872.150000000000
21
1040.087000000000
31
0.0
0
LINE
5
662
100
AcDbEntity
8
0-6戸当り
6
CONTINUOUS
62
3
100
AcDbLine
10
863.663000000000
20
1025.387000000000
30
0.0
11
872.150000000000
21
1030.287000000000
31
0.0
0
LINE
5
663
100
AcDbEntity
8
0-6戸当り
6
CONTINUOUS
62
3
100
AcDbLine
10
872.150000000000
20
1040.087000000000
30
0.0
11
872.150000000000
21
1030.287000000000
31
0.0
0
LINE
5
664
100
AcDbEntity
8
0-6戸当り
6
CONTINUOUS
62
3
100
AcDbLine
10
863.663000000000
20
1025.387000000000
30
0.0
11
855.176000000000
21
1030.287000000000
31
0.0
0
LINE
5
665
100
AcDbEntity
8
0-6戸当り
6
CONTINUOUS
62
3
100
AcDbLine
10
863.663000000000
20
1044.987000000000
30
0.0
11
855.176000000000
21
1040.087000000000
31
0.0
0
LINE
5
666
100
AcDbEntity
8
0-6戸当り
6
CONTINUOUS
62
3
100
AcDbLine
10
855.176000000000
20
1030.287000000000
30
0.0
11
855.176000000000
21
1040.087000000000
31
0.0
0
LINE
5
667
100
AcDbEntity
8
0-5基準線
6
CENTER2
62
7
100
AcDbLine
10
863.663000000000
20
1020.187000000000
30
0.0
11
863.663000000000
21
1050.187000000000
31
0.0
0
LINE
5
668
100
AcDbEntity
8
0-5基準線
6
CENTER2
62
7
100
AcDbLine
10
878.663000000000
20
1035.187000000000
30
0.0
11
848.663000000000
21
1035.187000000000
31
0.0
0
LINE
5
669
100
AcDbEntity
8
0-6戸当り
6
CONTINUOUS
62
3
100
AcDbLine
10
863.663000000000
20
1259.987000000000
30
0.0
11
872.150000000000
21
1255.087000000000
31
0.0
0
LINE
5
66a
100
AcDbEntity
8
0-6戸当り
6
CONTINUOUS
62
3
100
AcDbLine
10
863.663000000000
20
1240.387000000000
30
0.0
11
872.150000000000
21
1245.287000000000
31
0.0
0
LINE
5
66b
100
AcDbEntity
8
0-6戸当り
6
CONTINUOUS
62
3
100
AcDbLine
10
872.150000000000
20
1255.087000000000
30
0.0
11
872.150000000000
21
1245.287000000000
31
0.0
0
LINE
5
66c
100
AcDbEntity
8
0-6戸当り
6
CONTINUOUS
62
3
100
AcDbLine
10
863.663000000000
20
1240.387000000000
30
0.0
11
855.176000000000
21
1245.287000000000
31
0.0
0
LINE
5
66d
100
AcDbEntity
8
0-6戸当り
6
CONTINUOUS
62
3
100
AcDbLine
10
863.663000000000
20
1259.987000000000
30
0.0
11
855.176000000000
21
1255.087000000000
31
0.0
0
LINE
5
66e
100
AcDbEntity
8
0-6戸当り
6
CONTINUOUS
62
3
100
AcDbLine
10
855.176000000000
20
1245.287000000000
30
0.0
11
855.176000000000
21
1255.087000000000
31
0.0
0
LINE
5
66f
100
AcDbEntity
8
0-5基準線
6
CENTER2
62
7
100
AcDbLine
10
863.663000000000
20
1235.187000000000
30
0.0
11
863.663000000000
21
1265.187000000000
31
0.0
0
LINE
5
670
100
AcDbEntity
8
0-5基準線
6
CENTER2
62
7
100
AcDbLine
10
878.663000000000
20
1250.187000000000
30
0.0
11
848.663000000000
21
1250.187000000000
31
0.0
0
LINE
5
671
100
AcDbEntity
8
0-6戸当り
6
CONTINUOUS
62
3
100
AcDbLine
10
863.663000000000
20
1474.987000000000
30
0.0
11
872.150000000000
21
1470.087000000000
31
0.0
0
LINE
5
672
100
AcDbEntity
8
0-6戸当り
6
CONTINUOUS
62
3
100
AcDbLine
10
863.663000000000
20
1455.387000000000
30
0.0
11
872.150000000000
21
1460.287000000000
31
0.0
0
LINE
5
673
100
AcDbEntity
8
0-6戸当り
6
CONTINUOUS
62
3
100
AcDbLine
10
872.150000000000
20
1470.087000000000
30
0.0
11
872.150000000000
21
1460.287000000000
31
0.0
0
LINE
5
674
100
AcDbEntity
8
0-6戸当り
6
CONTINUOUS
62
3
100
AcDbLine
10
863.663000000000
20
1455.387000000000
30
0.0
11
855.176000000000
21
1460.287000000000
31
0.0
0
LINE
5
675
100
AcDbEntity
8
0-6戸当り
6
CONTINUOUS
62
3
100
AcDbLine
10
863.663000000000
20
1474.987000000000
30
0.0
11
855.176000000000
21
1470.087000000000
31
0.0
0
LINE
5
676
100
AcDbEntity
8
0-6戸当り
6
CONTINUOUS
62
3
100
AcDbLine
10
855.176000000000
20
1460.287000000000
30
0.0
11
855.176000000000
21
1470.087000000000
31
0.0
0
LINE
5
677
100
AcDbEntity
8
0-5基準線
6
CENTER2
62
7
100
AcDbLine
10
863.663000000000
20
1450.187000000000
30
0.0
11
863.663000000000
21
1480.187000000000
31
0.0
0
LINE
5
678
100
AcDbEntity
8
0-5基準線
6
CENTER2
62
7
100
AcDbLine
10
878.663000000000
20
1465.187000000000
30
0.0
11
848.663000000000
21
1465.187000000000
31
0.0
0
LINE
5
679
100
AcDbEntity
8
0-6戸当り
6
CONTINUOUS
62
3
100
AcDbLine
10
1723.663000000000
20
829.987000000000
30
0.0
11
1715.176000000000
21
825.087000000000
31
0.0
0
LINE
5
67a
100
AcDbEntity
8
0-6戸当り
6
CONTINUOUS
62
3
100
AcDbLine
10
1723.663000000000
20
810.387000000000
30
0.0
11
1715.176000000000
21
815.287000000000
31
0.0
0
LINE
5
67b
100
AcDbEntity
8
0-6戸当り
6
CONTINUOUS
62
3
100
AcDbLine
10
1715.176000000000
20
825.087000000000
30
0.0
11
1715.176000000000
21
815.287000000000
31
0.0
0
LINE
5
67c
100
AcDbEntity
8
0-6戸当り
6
CONTINUOUS
62
3
100
AcDbLine
10
1723.663000000000
20
810.387000000000
30
0.0
11
1732.150000000000
21
815.287000000000
31
0.0
0
LINE
5
67d
100
AcDbEntity
8
0-6戸当り
6
CONTINUOUS
62
3
100
AcDbLine
10
1723.663000000000
20
829.987000000000
30
0.0
11
1732.150000000000
21
825.087000000000
31
0.0
0
LINE
5
67e
100
AcDbEntity
8
0-6戸当り
6
CONTINUOUS
62
3
100
AcDbLine
10
1732.150000000000
20
815.287000000000
30
0.0
11
1732.150000000000
21
825.087000000000
31
0.0
0
LINE
5
67f
100
AcDbEntity
8
0-5基準線
6
CENTER2
62
7
100
AcDbLine
10
1723.663000000000
20
805.187000000000
30
0.0
11
1723.663000000000
21
835.187000000000
31
0.0
0
LINE
5
680
100
AcDbEntity
8
0-5基準線
6
CENTER2
62
7
100
AcDbLine
10
1708.663000000000
20
820.187000000000
30
0.0
11
1738.663000000000
21
820.187000000000
31
0.0
0
LINE
5
681
100
AcDbEntity
8
0-6戸当り
6
CONTINUOUS
62
3
100
AcDbLine
10
1723.663000000000
20
1044.987000000000
30
0.0
11
1715.176000000000
21
1040.087000000000
31
0.0
0
LINE
5
682
100
AcDbEntity
8
0-6戸当り
6
CONTINUOUS
62
3
100
AcDbLine
10
1723.663000000000
20
1025.387000000000
30
0.0
11
1715.176000000000
21
1030.287000000000
31
0.0
0
LINE
5
683
100
AcDbEntity
8
0-6戸当り
6
CONTINUOUS
62
3
100
AcDbLine
10
1715.176000000000
20
1040.087000000000
30
0.0
11
1715.176000000000
21
1030.287000000000
31
0.0
0
LINE
5
684
100
AcDbEntity
8
0-6戸当り
6
CONTINUOUS
62
3
100
AcDbLine
10
1723.663000000000
20
1025.387000000000
30
0.0
11
1732.150000000000
21
1030.287000000000
31
0.0
0
LINE
5
685
100
AcDbEntity
8
0-6戸当り
6
CONTINUOUS
62
3
100
AcDbLine
10
1723.663000000000
20
1044.987000000000
30
0.0
11
1732.150000000000
21
1040.087000000000
31
0.0
0
LINE
5
686
100
AcDbEntity
8
0-6戸当り
6
CONTINUOUS
62
3
100
AcDbLine
10
1732.150000000000
20
1030.287000000000
30
0.0
11
1732.150000000000
21
1040.087000000000
31
0.0
0
LINE
5
687
100
AcDbEntity
8
0-5基準線
6
CENTER2
62
7
100
AcDbLine
10
1723.663000000000
20
1020.187000000000
30
0.0
11
1723.663000000000
21
1050.187000000000
31
0.0
0
LINE
5
688
100
AcDbEntity
8
0-5基準線
6
CENTER2
62
7
100
AcDbLine
10
1708.663000000000
20
1035.187000000000
30
0.0
11
1738.663000000000
21
1035.187000000000
31
0.0
0
LINE
5
689
100
AcDbEntity
8
0-6戸当り
6
CONTINUOUS
62
3
100
AcDbLine
10
1723.663000000000
20
1259.987000000000
30
0.0
11
1715.176000000000
21
1255.087000000000
31
0.0
0
LINE
5
68a
100
AcDbEntity
8
0-6戸当り
6
CONTINUOUS
62
3
100
AcDbLine
10
1723.663000000000
20
1240.387000000000
30
0.0
11
1715.176000000000
21
1245.287000000000
31
0.0
0
LINE
5
68b
100
AcDbEntity
8
0-6戸当り
6
CONTINUOUS
62
3
100
AcDbLine
10
1715.176000000000
20
1255.087000000000
30
0.0
11
1715.176000000000
21
1245.287000000000
31
0.0
0
LINE
5
68c
100
AcDbEntity
8
0-6戸当り
6
CONTINUOUS
62
3
100
AcDbLine
10
1723.663000000000
20
1240.387000000000
30
0.0
11
1732.150000000000
21
1245.287000000000
31
0.0
0
LINE
5
68d
100
AcDbEntity
8
0-6戸当り
6
CONTINUOUS
62
3
100
AcDbLine
10
1723.663000000000
20
1259.987000000000
30
0.0
11
1732.150000000000
21
1255.087000000000
31
0.0
0
LINE
5
68e
100
AcDbEntity
8
0-6戸当り
6
CONTINUOUS
62
3
100
AcDbLine
10
1732.150000000000
20
1245.287000000000
30
0.0
11
1732.150000000000
21
1255.087000000000
31
0.0
0
LINE
5
68f
100
AcDbEntity
8
0-5基準線
6
CENTER2
62
7
100
AcDbLine
10
1723.663000000000
20
1235.187000000000
30
0.0
11
1723.663000000000
21
1265.187000000000
31
0.0
0
LINE
5
690
100
AcDbEntity
8
0-5基準線
6
CENTER2
62
7
100
AcDbLine
10
1708.663000000000
20
1250.187000000000
30
0.0
11
1738.663000000000
21
1250.187000000000
31
0.0
0
LINE
5
691
100
AcDbEntity
8
0-6戸当り
6
CONTINUOUS
62
3
100
AcDbLine
10
1723.663000000000
20
1474.987000000000
30
0.0
11
1715.176000000000
21
1470.087000000000
31
0.0
0
LINE
5
692
100
AcDbEntity
8
0-6戸当り
6
CONTINUOUS
62
3
100
AcDbLine
10
1723.663000000000
20
1455.387000000000
30
0.0
11
1715.176000000000
21
1460.287000000000
31
0.0
0
LINE
5
693
100
AcDbEntity
8
0-6戸当り
6
CONTINUOUS
62
3
100
AcDbLine
10
1715.176000000000
20
1470.087000000000
30
0.0
11
1715.176000000000
21
1460.287000000000
31
0.0
0
LINE
5
694
100
AcDbEntity
8
0-6戸当り
6
CONTINUOUS
62
3
100
AcDbLine
10
1723.663000000000
20
1455.387000000000
30
0.0
11
1732.150000000000
21
1460.287000000000
31
0.0
0
LINE
5
695
100
AcDbEntity
8
0-6戸当り
6
CONTINUOUS
62
3
100
AcDbLine
10
1723.663000000000
20
1474.987000000000
30
0.0
11
1732.150000000000
21
1470.087000000000
31
0.0
0
LINE
5
696
100
AcDbEntity
8
0-6戸当り
6
CONTINUOUS
62
3
100
AcDbLine
10
1732.150000000000
20
1460.287000000000
30
0.0
11
1732.150000000000
21
1470.087000000000
31
0.0
0
LINE
5
697
100
AcDbEntity
8
0-5基準線
6
CENTER2
62
7
100
AcDbLine
10
1723.663000000000
20
1450.187000000000
30
0.0
11
1723.663000000000
21
1480.187000000000
31
0.0
0
LINE
5
698
100
AcDbEntity
8
0-5基準線
6
CENTER2
62
7
100
AcDbLine
10
1708.663000000000
20
1465.187000000000
30
0.0
11
1738.663000000000
21
1465.187000000000
31
0.0
0
LINE
5
699
100
AcDbEntity
8
0-8寸法
6
CONTINUOUS
62
4
100
AcDbLine
10
593.663000000000
20
605.187000000000
30
0.0
11
593.663000000000
21
1465.187000000000
31
0.0
0
LINE
5
69a
100
AcDbEntity
8
0-8寸法
6
CONTINUOUS
62
4
100
AcDbLine
10
834.143000000000
20
605.187000000000
30
0.0
11
583.663000000000
21
605.187000000000
31
0.0
0
LINE
5
69b
100
AcDbEntity
8
0-8寸法
6
CONTINUOUS
62
4
100
AcDbLine
10
834.143000000000
20
1465.187000000000
30
0.0
11
583.663000000000
21
1465.187000000000
31
0.0
0
LINE
5
69c
100
AcDbEntity
8
0-8寸法
6
CONTINUOUS
62
4
100
AcDbLine
10
593.663000000000
20
605.187000000000
30
0.0
11
588.487000000000
21
624.506000000000
31
0.0
0
LINE
5
69d
100
AcDbEntity
8
0-8寸法
6
CONTINUOUS
62
4
100
AcDbLine
10
593.663000000000
20
605.187000000000
30
0.0
11
598.839000000000
21
624.506000000000
31
0.0
0
LINE
5
69e
100
AcDbEntity
8
0-8寸法
6
CONTINUOUS
62
4
100
AcDbLine
10
593.663000000000
20
1465.187000000000
30
0.0
11
588.487000000000
21
1445.869000000000
31
0.0
0
LINE
5
69f
100
AcDbEntity
8
0-8寸法
6
CONTINUOUS
62
4
100
AcDbLine
10
593.663000000000
20
1465.187000000000
30
0.0
11
598.839000000000
21
1445.869000000000
31
0.0
0
LINE
5
6a0
100
AcDbEntity
8
0-8寸法
6
CONTINUOUS
62
4
100
AcDbLine
10
593.663000000000
20
1465.187000000000
30
0.0
11
593.663000000000
21
1535.188000000000
31
0.0
0
LINE
5
6a1
100
AcDbEntity
8
0-8寸法
6
CONTINUOUS
62
4
100
AcDbLine
10
593.663000000000
20
1465.187000000000
30
0.0
11
588.487000000000
21
1484.506000000000
31
0.0
0
LINE
5
6a2
100
AcDbEntity
8
0-8寸法
6
CONTINUOUS
62
4
100
AcDbLine
10
593.663000000000
20
1465.187000000000
30
0.0
11
598.839000000000
21
1484.506000000000
31
0.0
0
LINE
5
6a3
100
AcDbEntity
8
0-8寸法
6
CONTINUOUS
62
4
100
AcDbLine
10
593.663000000000
20
1535.188000000000
30
0.0
11
588.487000000000
21
1515.869000000000
31
0.0
0
LINE
5
6a4
100
AcDbEntity
8
0-8寸法
6
CONTINUOUS
62
4
100
AcDbLine
10
593.663000000000
20
1535.188000000000
30
0.0
11
598.839000000000
21
1515.869000000000
31
0.0
0
LINE
5
6a5
100
AcDbEntity
8
0-6戸当り
6
CONTINUOUS
62
3
100
AcDbLine
10
963.663000000000
20
1474.987000000000
30
0.0
11
972.150000000000
21
1470.087000000000
31
0.0
0
LINE
5
6a6
100
AcDbEntity
8
0-6戸当り
6
CONTINUOUS
62
3
100
AcDbLine
10
963.663000000000
20
1455.387000000000
30
0.0
11
972.150000000000
21
1460.287000000000
31
0.0
0
LINE
5
6a7
100
AcDbEntity
8
0-6戸当り
6
CONTINUOUS
62
3
100
AcDbLine
10
972.150000000000
20
1470.087000000000
30
0.0
11
972.150000000000
21
1460.287000000000
31
0.0
0
LINE
5
6a8
100
AcDbEntity
8
0-6戸当り
6
CONTINUOUS
62
3
100
AcDbLine
10
963.663000000000
20
1455.387000000000
30
0.0
11
955.176000000000
21
1460.287000000000
31
0.0
0
LINE
5
6a9
100
AcDbEntity
8
0-6戸当り
6
CONTINUOUS
62
3
100
AcDbLine
10
963.663000000000
20
1474.987000000000
30
0.0
11
955.176000000000
21
1470.087000000000
31
0.0
0
LINE
5
6aa
100
AcDbEntity
8
0-6戸当り
6
CONTINUOUS
62
3
100
AcDbLine
10
955.176000000000
20
1460.287000000000
30
0.0
11
955.176000000000
21
1470.087000000000
31
0.0
0
LINE
5
6ab
100
AcDbEntity
8
0-5基準線
6
CENTER2
62
7
100
AcDbLine
10
963.663000000000
20
1450.187000000000
30
0.0
11
963.663000000000
21
1480.187000000000
31
0.0
0
LINE
5
6ac
100
AcDbEntity
8
0-5基準線
6
CENTER2
62
7
100
AcDbLine
10
978.663000000000
20
1465.187000000000
30
0.0
11
948.663000000000
21
1465.187000000000
31
0.0
0
LINE
5
6ad
100
AcDbEntity
8
0-6戸当り
6
CONTINUOUS
62
3
100
AcDbLine
10
1183.663000000000
20
1474.987000000000
30
0.0
11
1192.150000000000
21
1470.087000000000
31
0.0
0
LINE
5
6ae
100
AcDbEntity
8
0-6戸当り
6
CONTINUOUS
62
3
100
AcDbLine
10
1183.663000000000
20
1455.387000000000
30
0.0
11
1192.150000000000
21
1460.287000000000
31
0.0
0
LINE
5
6af
100
AcDbEntity
8
0-6戸当り
6
CONTINUOUS
62
3
100
AcDbLine
10
1192.150000000000
20
1470.087000000000
30
0.0
11
1192.150000000000
21
1460.287000000000
31
0.0
0
LINE
5
6b0
100
AcDbEntity
8
0-6戸当り
6
CONTINUOUS
62
3
100
AcDbLine
10
1183.663000000000
20
1455.387000000000
30
0.0
11
1175.176000000000
21
1460.287000000000
31
0.0
0
LINE
5
6b1
100
AcDbEntity
8
0-6戸当り
6
CONTINUOUS
62
3
100
AcDbLine
10
1183.663000000000
20
1474.987000000000
30
0.0
11
1175.176000000000
21
1470.087000000000
31
0.0
0
LINE
5
6b2
100
AcDbEntity
8
0-6戸当り
6
CONTINUOUS
62
3
100
AcDbLine
10
1175.176000000000
20
1460.287000000000
30
0.0
11
1175.176000000000
21
1470.087000000000
31
0.0
0
LINE
5
6b3
100
AcDbEntity
8
0-5基準線
6
CENTER2
62
7
100
AcDbLine
10
1183.663000000000
20
1450.187000000000
30
0.0
11
1183.663000000000
21
1480.187000000000
31
0.0
0
LINE
5
6b4
100
AcDbEntity
8
0-5基準線
6
CENTER2
62
7
100
AcDbLine
10
1198.663000000000
20
1465.187000000000
30
0.0
11
1168.663000000000
21
1465.187000000000
31
0.0
0
LINE
5
6b5
100
AcDbEntity
8
0-6戸当り
6
CONTINUOUS
62
3
100
AcDbLine
10
1403.663000000000
20
1474.987000000000
30
0.0
11
1412.150000000000
21
1470.087000000000
31
0.0
0
LINE
5
6b6
100
AcDbEntity
8
0-6戸当り
6
CONTINUOUS
62
3
100
AcDbLine
10
1403.663000000000
20
1455.387000000000
30
0.0
11
1412.150000000000
21
1460.287000000000
31
0.0
0
LINE
5
6b7
100
AcDbEntity
8
0-6戸当り
6
CONTINUOUS
62
3
100
AcDbLine
10
1412.150000000000
20
1470.087000000000
30
0.0
11
1412.150000000000
21
1460.287000000000
31
0.0
0
LINE
5
6b8
100
AcDbEntity
8
0-6戸当り
6
CONTINUOUS
62
3
100
AcDbLine
10
1403.663000000000
20
1455.387000000000
30
0.0
11
1395.176000000000
21
1460.287000000000
31
0.0
0
LINE
5
6b9
100
AcDbEntity
8
0-6戸当り
6
CONTINUOUS
62
3
100
AcDbLine
10
1403.663000000000
20
1474.987000000000
30
0.0
11
1395.176000000000
21
1470.087000000000
31
0.0
0
LINE
5
6ba
100
AcDbEntity
8
0-6戸当り
6
CONTINUOUS
62
3
100
AcDbLine
10
1395.176000000000
20
1460.287000000000
30
0.0
11
1395.176000000000
21
1470.087000000000
31
0.0
0
LINE
5
6bb
100
AcDbEntity
8
0-5基準線
6
CENTER2
62
7
100
AcDbLine
10
1403.663000000000
20
1450.187000000000
30
0.0
11
1403.663000000000
21
1480.187000000000
31
0.0
0
LINE
5
6bc
100
AcDbEntity
8
0-5基準線
6
CENTER2
62
7
100
AcDbLine
10
1418.663000000000
20
1465.187000000000
30
0.0
11
1388.663000000000
21
1465.187000000000
31
0.0
0
LINE
5
6bd
100
AcDbEntity
8
0-6戸当り
6
CONTINUOUS
62
3
100
AcDbLine
10
1623.663000000000
20
1474.987000000000
30
0.0
11
1632.150000000000
21
1470.087000000000
31
0.0
0
LINE
5
6be
100
AcDbEntity
8
0-6戸当り
6
CONTINUOUS
62
3
100
AcDbLine
10
1623.663000000000
20
1455.387000000000
30
0.0
11
1632.150000000000
21
1460.287000000000
31
0.0
0
LINE
5
6bf
100
AcDbEntity
8
0-6戸当り
6
CONTINUOUS
62
3
100
AcDbLine
10
1632.150000000000
20
1470.087000000000
30
0.0
11
1632.150000000000
21
1460.287000000000
31
0.0
0
LINE
5
6c0
100
AcDbEntity
8
0-6戸当り
6
CONTINUOUS
62
3
100
AcDbLine
10
1623.663000000000
20
1455.387000000000
30
0.0
11
1615.176000000000
21
1460.287000000000
31
0.0
0
LINE
5
6c1
100
AcDbEntity
8
0-6戸当り
6
CONTINUOUS
62
3
100
AcDbLine
10
1623.663000000000
20
1474.987000000000
30
0.0
11
1615.176000000000
21
1470.087000000000
31
0.0
0
LINE
5
6c2
100
AcDbEntity
8
0-6戸当り
6
CONTINUOUS
62
3
100
AcDbLine
10
1615.176000000000
20
1460.287000000000
30
0.0
11
1615.176000000000
21
1470.087000000000
31
0.0
0
LINE
5
6c3
100
AcDbEntity
8
0-5基準線
6
CENTER2
62
7
100
AcDbLine
10
1623.663000000000
20
1450.187000000000
30
0.0
11
1623.663000000000
21
1480.187000000000
31
0.0
0
LINE
5
6c4
100
AcDbEntity
8
0-5基準線
6
CENTER2
62
7
100
AcDbLine
10
1638.663000000000
20
1465.187000000000
30
0.0
11
1608.663000000000
21
1465.187000000000
31
0.0
0
LINE
5
6c5
100
AcDbEntity
8
0-8寸法
6
CONTINUOUS
62
4
100
AcDbLine
10
963.663000000000
20
1860.188000000000
30
0.0
11
1623.663000000000
21
1860.188000000000
31
0.0
0
LINE
5
6c6
100
AcDbEntity
8
0-8寸法
6
CONTINUOUS
62
4
100
AcDbLine
10
963.663000000000
20
1544.457000000000
30
0.0
11
963.663000000000
21
1870.188000000000
31
0.0
0
LINE
5
6c7
100
AcDbEntity
8
0-8寸法
6
CONTINUOUS
62
4
100
AcDbLine
10
1623.663000000000
20
1544.457000000000
30
0.0
11
1623.663000000000
21
1870.188000000000
31
0.0
0
LINE
5
6c8
100
AcDbEntity
8
0-8寸法
6
CONTINUOUS
62
4
100
AcDbLine
10
963.663000000000
20
1860.188000000000
30
0.0
11
982.981000000000
21
1865.364000000000
31
0.0
0
LINE
5
6c9
100
AcDbEntity
8
0-8寸法
6
CONTINUOUS
62
4
100
AcDbLine
10
963.663000000000
20
1860.188000000000
30
0.0
11
982.981000000000
21
1855.011000000000
31
0.0
0
LINE
5
6ca
100
AcDbEntity
8
0-8寸法
6
CONTINUOUS
62
4
100
AcDbLine
10
1623.663000000000
20
1860.188000000000
30
0.0
11
1604.344000000000
21
1865.364000000000
31
0.0
0
LINE
5
6cb
100
AcDbEntity
8
0-8寸法
6
CONTINUOUS
62
4
100
AcDbLine
10
1623.663000000000
20
1860.188000000000
30
0.0
11
1604.344000000000
21
1855.011000000000
31
0.0
0
LINE
5
6cc
100
AcDbEntity
8
0-9扉体
6
CONTINUOUS
62
6
100
AcDbLine
10
957.497000000000
20
2322.647000000000
30
0.0
11
969.163000000000
21
2334.314000000000
31
0.0
0
LINE
5
6cd
100
AcDbEntity
8
0-9扉体
6
CONTINUOUS
62
6
100
AcDbLine
10
956.082000000000
20
2322.647000000000
30
0.0
11
969.163000000000
21
2335.728000000000
31
0.0
0
LINE
5
6ce
100
AcDbEntity
8
0-9扉体
6
CONTINUOUS
62
6
100
AcDbLine
10
998.509000000000
20
2322.647000000000
30
0.0
11
1018.509000000000
21
2342.647000000000
31
0.0
0
LINE
5
6cf
100
AcDbEntity
8
0-9扉体
6
CONTINUOUS
62
6
100
AcDbLine
10
999.923000000000
20
2322.647000000000
30
0.0
11
1019.923000000000
21
2342.647000000000
31
0.0
0
LINE
5
6d0
100
AcDbEntity
8
0-9扉体
6
CONTINUOUS
62
6
100
AcDbLine
10
1138.163000000000
20
2333.607000000000
30
0.0
11
1147.203000000000
21
2342.647000000000
31
0.0
0
LINE
5
6d1
100
AcDbEntity
8
0-6戸当り
6
CONTINUOUS
62
6
100
AcDbLine
10
1138.163000000000
20
2335.021000000000
30
0.0
11
1145.788000000000
21
2342.647000000000
31
0.0
0
LINE
5
6d2
100
AcDbEntity
8
0-9扉体
6
CONTINUOUS
62
6
100
AcDbLine
10
1113.060000000000
20
2322.647000000000
30
0.0
11
1119.163000000000
21
2328.749000000000
31
0.0
0
LINE
5
6d3
100
AcDbEntity
8
0-9扉体
6
CONTINUOUS
62
6
100
AcDbLine
10
1111.646000000000
20
2322.647000000000
30
0.0
11
1119.163000000000
21
2330.164000000000
31
0.0
0
LINE
5
6d4
100
AcDbEntity
8
0-9扉体
6
CONTINUOUS
62
6
100
AcDbLine
10
1097.504000000000
20
2322.647000000000
30
0.0
11
1115.663000000000
21
2340.805000000000
31
0.0
0
LINE
5
6d5
100
AcDbEntity
8
0-9扉体
6
CONTINUOUS
62
6
100
AcDbLine
10
1098.918000000000
20
2322.647000000000
30
0.0
11
1116.518000000000
21
2340.247000000000
31
0.0
0
LINE
5
6d6
100
AcDbEntity
8
0-9扉体
6
CONTINUOUS
62
3
100
AcDbLine
10
1128.663000000000
20
1444.188000000000
30
0.0
11
1128.663000000000
21
1435.188000000000
31
0.0
0
LINE
5
6d7
100
AcDbEntity
8
0-9扉体
6
CONTINUOUS
62
3
100
AcDbLine
10
978.663000000000
20
1444.188000000000
30
0.0
11
978.663000000000
21
1435.188000000000
31
0.0
0
LINE
5
6d8
100
AcDbEntity
8
0-9扉体
6
CONTINUOUS
62
3
100
AcDbLine
10
1128.663000000000
20
1444.188000000000
30
0.0
11
978.663000000000
21
1444.188000000000
31
0.0
0
POLYLINE
5
6d9
100
AcDbEntity
8
0-9扉体
6
CONTINUOUS
62
  3
100
AcDb2dPolyline
66
1
10
0.0
20
0.0
30
0.0
70
0
0
VERTEX
5
6da
100
AcDbEntity
8
0-9扉体
6
CONTINUOUS
62
  3
100
AcDbVertex
100
AcDb2dVertex
10
1018.663000000000
20
1509.188000000000
30
0.0
0
VERTEX
5
6db
100
AcDbEntity
8
0-9扉体
6
CONTINUOUS
62
  3
100
AcDbVertex
100
AcDb2dVertex
10
1027.663000000000
20
1509.188000000000
30
0.0
0
VERTEX
5
6dc
100
AcDbEntity
8
0-9扉体
6
CONTINUOUS
62
  3
100
AcDbVertex
100
AcDb2dVertex
10
1027.663000000000
20
1444.188000000000
30
0.0
0
SEQEND
5
6dd
100
AcDbEntity
8
0-9扉体
0
LINE
5
6de
100
AcDbEntity
8
0-9扉体
6
CONTINUOUS
62
3
100
AcDbLine
10
1018.663000000000
20
1509.188000000000
30
0.0
11
1018.663000000000
21
1444.188000000000
31
0.0
0
LINE
5
6df
100
AcDbEntity
8
0-9扉体
6
CONTINUOUS
62
6
100
AcDbLine
10
1016.063000000000
20
1501.188000000000
30
0.0
11
1016.063000000000
21
1469.188000000000
31
0.0
0
LINE
5
6e0
100
AcDbEntity
8
0-9扉体
6
CONTINUOUS
62
6
100
AcDbLine
10
1016.063000000000
20
1501.188000000000
30
0.0
11
1018.663000000000
21
1501.188000000000
31
0.0
0
LINE
5
6e1
100
AcDbEntity
8
0-9扉体
6
CONTINUOUS
62
6
100
AcDbLine
10
1016.063000000000
20
1469.188000000000
30
0.0
11
1018.663000000000
21
1469.188000000000
31
0.0
0
LINE
5
6e2
100
AcDbEntity
8
0-9扉体
6
CONTINUOUS
62
6
100
AcDbLine
10
1005.163000000000
20
1495.188000000000
30
0.0
11
1016.063000000000
21
1495.188000000000
31
0.0
0
LINE
5
6e3
100
AcDbEntity
8
0-9扉体
6
CONTINUOUS
62
6
100
AcDbLine
10
1027.663000000000
20
1495.188000000000
30
0.0
11
1029.663000000000
21
1495.188000000000
31
0.0
0
LINE
5
6e4
100
AcDbEntity
8
0-9扉体
6
CONTINUOUS
62
6
100
AcDbLine
10
1005.163000000000
20
1475.188000000000
30
0.0
11
1016.063000000000
21
1475.188000000000
31
0.0
0
LINE
5
6e5
100
AcDbEntity
8
0-9扉体
6
CONTINUOUS
62
6
100
AcDbLine
10
1027.663000000000
20
1475.188000000000
30
0.0
11
1029.663000000000
21
1475.188000000000
31
0.0
0
LINE
5
6e6
100
AcDbEntity
8
0-9扉体
6
CONTINUOUS
62
6
100
AcDbLine
10
1005.163000000000
20
1495.188000000000
30
0.0
11
1005.163000000000
21
1475.188000000000
31
0.0
0
LINE
5
6e7
100
AcDbEntity
8
0-9扉体
6
CONTINUOUS
62
6
100
AcDbLine
10
1091.263000000000
20
1501.188000000000
30
0.0
11
1091.263000000000
21
1469.188000000000
31
0.0
0
LINE
5
6e8
100
AcDbEntity
8
0-9扉体
6
CONTINUOUS
62
6
100
AcDbLine
10
1091.263000000000
20
1501.188000000000
30
0.0
11
1088.663000000000
21
1501.188000000000
31
0.0
0
LINE
5
6e9
100
AcDbEntity
8
0-9扉体
6
CONTINUOUS
62
6
100
AcDbLine
10
1091.263000000000
20
1469.188000000000
30
0.0
11
1088.663000000000
21
1469.188000000000
31
0.0
0
POLYLINE
5
6ea
100
AcDbEntity
8
0-9扉体
6
CONTINUOUS
62
  3
100
AcDb2dPolyline
66
1
10
0.0
20
0.0
30
0.0
70
0
0
VERTEX
5
6eb
100
AcDbEntity
8
0-9扉体
6
CONTINUOUS
62
  3
100
AcDbVertex
100
AcDb2dVertex
10
1088.663000000000
20
1509.188000000000
30
0.0
0
VERTEX
5
6ec
100
AcDbEntity
8
0-9扉体
6
CONTINUOUS
62
  3
100
AcDbVertex
100
AcDb2dVertex
10
1079.663000000000
20
1509.188000000000
30
0.0
0
VERTEX
5
6ed
100
AcDbEntity
8
0-9扉体
6
CONTINUOUS
62
  3
100
AcDbVertex
100
AcDb2dVertex
10
1079.663000000000
20
1444.188000000000
30
0.0
0
SEQEND
5
6ee
100
AcDbEntity
8
0-9扉体
0
LINE
5
6ef
100
AcDbEntity
8
0-9扉体
6
CONTINUOUS
62
3
100
AcDbLine
10
1088.663000000000
20
1509.188000000000
30
0.0
11
1088.663000000000
21
1444.188000000000
31
0.0
0
LINE
5
6f0
100
AcDbEntity
8
0-9扉体
6
CONTINUOUS
62
6
100
AcDbLine
10
1102.163000000000
20
1495.188000000000
30
0.0
11
1091.263000000000
21
1495.188000000000
31
0.0
0
LINE
5
6f1
100
AcDbEntity
8
0-9扉体
6
CONTINUOUS
62
6
100
AcDbLine
10
1079.663000000000
20
1495.188000000000
30
0.0
11
1077.663000000000
21
1495.188000000000
31
0.0
0
LINE
5
6f2
100
AcDbEntity
8
0-9扉体
6
CONTINUOUS
62
6
100
AcDbLine
10
1102.163000000000
20
1475.188000000000
30
0.0
11
1091.263000000000
21
1475.188000000000
31
0.0
0
LINE
5
6f3
100
AcDbEntity
8
0-9扉体
6
CONTINUOUS
62
6
100
AcDbLine
10
1079.663000000000
20
1475.188000000000
30
0.0
11
1077.663000000000
21
1475.188000000000
31
0.0
0
LINE
5
6f4
100
AcDbEntity
8
0-9扉体
6
CONTINUOUS
62
6
100
AcDbLine
10
1102.163000000000
20
1495.188000000000
30
0.0
11
1102.163000000000
21
1475.188000000000
31
0.0
0
LINE
5
6f5
100
AcDbEntity
8
0-5基準線
6
CENTER2
62
7
100
AcDbLine
10
998.663000000000
20
1485.188000000000
30
0.0
11
1108.663000000000
21
1485.188000000000
31
0.0
0
LINE
5
6f6
100
AcDbEntity
8
0-9扉体
6
DOT
62
6
100
AcDbLine
10
1029.663000000000
20
1496.688000000000
30
0.0
11
1077.663000000000
21
1496.688000000000
31
0.0
0
LINE
5
6f7
100
AcDbEntity
8
0-9扉体
6
DOT
62
6
100
AcDbLine
10
1029.663000000000
20
1473.688000000000
30
0.0
11
1077.663000000000
21
1473.688000000000
31
0.0
0
LINE
5
6f8
100
AcDbEntity
8
0-5基準線
6
CENTER2
62
7
100
AcDbLine
10
1533.663000000000
20
1528.137000000000
30
0.0
11
1533.663000000000
21
1423.724000000000
31
0.0
0
LINE
5
6f9
100
AcDbEntity
8
0-9扉体
6
CONTINUOUS
62
3
100
AcDbLine
10
1608.663000000000
20
1444.188000000000
30
0.0
11
1608.663000000000
21
1435.188000000000
31
0.0
0
LINE
5
6fa
100
AcDbEntity
8
0-9扉体
6
CONTINUOUS
62
3
100
AcDbLine
10
1458.663000000000
20
1444.188000000000
30
0.0
11
1458.663000000000
21
1435.188000000000
31
0.0
0
LINE
5
6fb
100
AcDbEntity
8
0-9扉体
6
CONTINUOUS
62
3
100
AcDbLine
10
1608.663000000000
20
1444.188000000000
30
0.0
11
1458.663000000000
21
1444.188000000000
31
0.0
0
POLYLINE
5
6fc
100
AcDbEntity
8
0-9扉体
6
CONTINUOUS
62
  3
100
AcDb2dPolyline
66
1
10
0.0
20
0.0
30
0.0
70
0
0
VERTEX
5
6fd
100
AcDbEntity
8
0-9扉体
6
CONTINUOUS
62
  3
100
AcDbVertex
100
AcDb2dVertex
10
1498.663000000000
20
1509.188000000000
30
0.0
0
VERTEX
5
6fe
100
AcDbEntity
8
0-9扉体
6
CONTINUOUS
62
  3
100
AcDbVertex
100
AcDb2dVertex
10
1507.663000000000
20
1509.188000000000
30
0.0
0
VERTEX
5
6ff
100
AcDbEntity
8
0-9扉体
6
CONTINUOUS
62
  3
100
AcDbVertex
100
AcDb2dVertex
10
1507.663000000000
20
1444.188000000000
30
0.0
0
SEQEND
5
700
100
AcDbEntity
8
0-9扉体
0
LINE
5
701
100
AcDbEntity
8
0-9扉体
6
CONTINUOUS
62
3
100
AcDbLine
10
1498.663000000000
20
1509.188000000000
30
0.0
11
1498.663000000000
21
1444.188000000000
31
0.0
0
LINE
5
702
100
AcDbEntity
8
0-9扉体
6
CONTINUOUS
62
6
100
AcDbLine
10
1496.063000000000
20
1501.188000000000
30
0.0
11
1496.063000000000
21
1469.188000000000
31
0.0
0
LINE
5
703
100
AcDbEntity
8
0-9扉体
6
CONTINUOUS
62
6
100
AcDbLine
10
1496.063000000000
20
1501.188000000000
30
0.0
11
1498.663000000000
21
1501.188000000000
31
0.0
0
LINE
5
704
100
AcDbEntity
8
0-9扉体
6
CONTINUOUS
62
6
100
AcDbLine
10
1496.063000000000
20
1469.188000000000
30
0.0
11
1498.663000000000
21
1469.188000000000
31
0.0
0
LINE
5
705
100
AcDbEntity
8
0-9扉体
6
CONTINUOUS
62
6
100
AcDbLine
10
1485.163000000000
20
1495.188000000000
30
0.0
11
1496.063000000000
21
1495.188000000000
31
0.0
0
LINE
5
706
100
AcDbEntity
8
0-9扉体
6
CONTINUOUS
62
6
100
AcDbLine
10
1507.663000000000
20
1495.188000000000
30
0.0
11
1509.663000000000
21
1495.188000000000
31
0.0
0
LINE
5
707
100
AcDbEntity
8
0-9扉体
6
CONTINUOUS
62
6
100
AcDbLine
10
1485.163000000000
20
1475.188000000000
30
0.0
11
1496.063000000000
21
1475.188000000000
31
0.0
0
LINE
5
708
100
AcDbEntity
8
0-9扉体
6
CONTINUOUS
62
6
100
AcDbLine
10
1507.663000000000
20
1475.188000000000
30
0.0
11
1509.663000000000
21
1475.188000000000
31
0.0
0
LINE
5
709
100
AcDbEntity
8
0-9扉体
6
CONTINUOUS
62
6
100
AcDbLine
10
1485.163000000000
20
1495.188000000000
30
0.0
11
1485.163000000000
21
1475.188000000000
31
0.0
0
LINE
5
70a
100
AcDbEntity
8
0-9扉体
6
CONTINUOUS
62
6
100
AcDbLine
10
1571.263000000000
20
1501.188000000000
30
0.0
11
1571.263000000000
21
1469.188000000000
31
0.0
0
LINE
5
70b
100
AcDbEntity
8
0-9扉体
6
CONTINUOUS
62
6
100
AcDbLine
10
1571.263000000000
20
1501.188000000000
30
0.0
11
1568.663000000000
21
1501.188000000000
31
0.0
0
LINE
5
70c
100
AcDbEntity
8
0-9扉体
6
CONTINUOUS
62
6
100
AcDbLine
10
1571.263000000000
20
1469.188000000000
30
0.0
11
1568.663000000000
21
1469.188000000000
31
0.0
0
POLYLINE
5
70d
100
AcDbEntity
8
0-9扉体
6
CONTINUOUS
62
  3
100
AcDb2dPolyline
66
1
10
0.0
20
0.0
30
0.0
70
0
0
VERTEX
5
70e
100
AcDbEntity
8
0-9扉体
6
CONTINUOUS
62
  3
100
AcDbVertex
100
AcDb2dVertex
10
1568.663000000000
20
1509.188000000000
30
0.0
0
VERTEX
5
70f
100
AcDbEntity
8
0-9扉体
6
CONTINUOUS
62
  3
100
AcDbVertex
100
AcDb2dVertex
10
1559.663000000000
20
1509.188000000000
30
0.0
0
VERTEX
5
710
100
AcDbEntity
8
0-9扉体
6
CONTINUOUS
62
  3
100
AcDbVertex
100
AcDb2dVertex
10
1559.663000000000
20
1444.188000000000
30
0.0
0
SEQEND
5
711
100
AcDbEntity
8
0-9扉体
0
LINE
5
712
100
AcDbEntity
8
0-9扉体
6
CONTINUOUS
62
3
100
AcDbLine
10
1568.663000000000
20
1509.188000000000
30
0.0
11
1568.663000000000
21
1444.188000000000
31
0.0
0
LINE
5
713
100
AcDbEntity
8
0-9扉体
6
CONTINUOUS
62
6
100
AcDbLine
10
1582.163000000000
20
1495.188000000000
30
0.0
11
1571.263000000000
21
1495.188000000000
31
0.0
0
LINE
5
714
100
AcDbEntity
8
0-9扉体
6
CONTINUOUS
62
6
100
AcDbLine
10
1559.663000000000
20
1495.188000000000
30
0.0
11
1557.663000000000
21
1495.188000000000
31
0.0
0
LINE
5
715
100
AcDbEntity
8
0-9扉体
6
CONTINUOUS
62
6
100
AcDbLine
10
1582.163000000000
20
1475.188000000000
30
0.0
11
1571.263000000000
21
1475.188000000000
31
0.0
0
LINE
5
716
100
AcDbEntity
8
0-9扉体
6
CONTINUOUS
62
6
100
AcDbLine
10
1559.663000000000
20
1475.188000000000
30
0.0
11
1557.663000000000
21
1475.188000000000
31
0.0
0
LINE
5
717
100
AcDbEntity
8
0-9扉体
6
CONTINUOUS
62
6
100
AcDbLine
10
1582.163000000000
20
1495.188000000000
30
0.0
11
1582.163000000000
21
1475.188000000000
31
0.0
0
LINE
5
718
100
AcDbEntity
8
0-5基準線
6
CENTER2
62
7
100
AcDbLine
10
1478.663000000000
20
1485.188000000000
30
0.0
11
1588.663000000000
21
1485.188000000000
31
0.0
0
LINE
5
719
100
AcDbEntity
8
0-9扉体
6
DOT
62
6
100
AcDbLine
10
1509.663000000000
20
1496.688000000000
30
0.0
11
1557.663000000000
21
1496.688000000000
31
0.0
0
LINE
5
71a
100
AcDbEntity
8
0-9扉体
6
DOT
62
6
100
AcDbLine
10
1509.663000000000
20
1473.688000000000
30
0.0
11
1557.663000000000
21
1473.688000000000
31
0.0
0
LINE
5
71b
100
AcDbEntity
8
0-9扉体
6
CONTINUOUS
62
6
100
AcDbLine
10
1029.663000000000
20
1506.688000000000
30
0.0
11
1077.663000000000
21
1506.688000000000
31
0.0
0
LINE
5
71c
100
AcDbEntity
8
0-9扉体
6
CONTINUOUS
62
6
100
AcDbLine
10
1029.663000000000
20
1463.688000000000
30
0.0
11
1077.663000000000
21
1463.688000000000
31
0.0
0
LINE
5
71d
100
AcDbEntity
8
0-9扉体
6
CONTINUOUS
62
6
100
AcDbLine
10
1029.663000000000
20
1506.688000000000
30
0.0
11
1029.663000000000
21
1463.688000000000
31
0.0
0
LINE
5
71e
100
AcDbEntity
8
0-9扉体
6
CONTINUOUS
62
6
100
AcDbLine
10
1077.663000000000
20
1506.688000000000
30
0.0
11
1077.663000000000
21
1463.688000000000
31
0.0
0
LINE
5
71f
100
AcDbEntity
8
0-9扉体
6
CONTINUOUS
62
6
100
AcDbLine
10
1509.663000000000
20
1506.688000000000
30
0.0
11
1557.663000000000
21
1506.688000000000
31
0.0
0
LINE
5
720
100
AcDbEntity
8
0-9扉体
6
CONTINUOUS
62
6
100
AcDbLine
10
1509.663000000000
20
1463.688000000000
30
0.0
11
1557.663000000000
21
1463.688000000000
31
0.0
0
LINE
5
721
100
AcDbEntity
8
0-9扉体
6
CONTINUOUS
62
6
100
AcDbLine
10
1509.663000000000
20
1506.688000000000
30
0.0
11
1509.663000000000
21
1463.688000000000
31
0.0
0
LINE
5
722
100
AcDbEntity
8
0-9扉体
6
CONTINUOUS
62
6
100
AcDbLine
10
1557.663000000000
20
1506.688000000000
30
0.0
11
1557.663000000000
21
1463.688000000000
31
0.0
0
POLYLINE
5
723
100
AcDbEntity
8
0-9扉体
6
CONTINUOUS
62
  6
100
AcDb2dPolyline
66
1
10
0.0
20
0.0
30
0.0
70
0
0
VERTEX
5
724
100
AcDbEntity
8
0-9扉体
6
CONTINUOUS
62
  6
100
AcDbVertex
100
AcDb2dVertex
10
1128.663000000000
20
2261.647000000000
30
0.0
0
VERTEX
5
725
100
AcDbEntity
8
0-9扉体
6
CONTINUOUS
62
  6
100
AcDbVertex
100
AcDb2dVertex
10
1128.663000000000
20
2311.647000000000
30
0.0
0
VERTEX
5
726
100
AcDbEntity
8
0-9扉体
6
CONTINUOUS
62
  6
100
AcDbVertex
100
AcDb2dVertex
10
1102.163000000000
20
2311.647000000000
30
0.0
0
SEQEND
5
727
100
AcDbEntity
8
0-9扉体
0
POLYLINE
5
728
100
AcDbEntity
8
0-9扉体
6
CONTINUOUS
62
  6
100
AcDb2dPolyline
66
1
10
0.0
20
0.0
30
0.0
70
0
0
VERTEX
5
729
100
AcDbEntity
8
0-9扉体
6
CONTINUOUS
62
  6
100
AcDbVertex
100
AcDb2dVertex
10
978.663000000000
20
2261.647000000000
30
0.0
0
VERTEX
5
72a
100
AcDbEntity
8
0-9扉体
6
CONTINUOUS
62
  6
100
AcDbVertex
100
AcDb2dVertex
10
978.663000000000
20
2311.647000000000
30
0.0
0
VERTEX
5
72b
100
AcDbEntity
8
0-9扉体
6
CONTINUOUS
62
  6
100
AcDbVertex
100
AcDb2dVertex
10
1005.163000000000
20
2311.647000000000
30
0.0
0
SEQEND
5
72c
100
AcDbEntity
8
0-9扉体
0
LINE
5
72d
100
AcDbEntity
8
0-9扉体
6
CONTINUOUS
62
6
100
AcDbLine
10
978.663000000000
20
2261.647000000000
30
0.0
11
1128.663000000000
21
2261.647000000000
31
0.0
0
LINE
5
72e
100
AcDbEntity
8
0-9扉体
6
CONTINUOUS
62
6
100
AcDbLine
10
1018.663000000000
20
2326.147000000000
30
0.0
11
1027.663000000000
21
2326.147000000000
31
0.0
0
LINE
5
72f
100
AcDbEntity
8
0-9扉体
6
CONTINUOUS
62
6
100
AcDbLine
10
1018.663000000000
20
2291.147000000000
30
0.0
11
1027.663000000000
21
2291.147000000000
31
0.0
0
LINE
5
730
100
AcDbEntity
8
0-9扉体
6
CONTINUOUS
62
6
100
AcDbLine
10
1016.063000000000
20
2324.647000000000
30
0.0
11
1016.063000000000
21
2292.647000000000
31
0.0
0
LINE
5
731
100
AcDbEntity
8
0-9扉体
6
CONTINUOUS
62
6
100
AcDbLine
10
1005.163000000000
20
2300.647000000000
30
0.0
11
1016.063000000000
21
2300.647000000000
31
0.0
0
LINE
5
732
100
AcDbEntity
8
0-9扉体
6
CONTINUOUS
62
6
100
AcDbLine
10
1027.663000000000
20
2300.647000000000
30
0.0
11
1029.663000000000
21
2300.647000000000
31
0.0
0
LINE
5
733
100
AcDbEntity
8
0-9扉体
6
CONTINUOUS
62
6
100
AcDbLine
10
1027.663000000000
20
2316.647000000000
30
0.0
11
1029.663000000000
21
2316.647000000000
31
0.0
0
LINE
5
734
100
AcDbEntity
8
0-9扉体
6
CONTINUOUS
62
6
100
AcDbLine
10
1016.063000000000
20
2324.647000000000
30
0.0
11
1018.663000000000
21
2324.647000000000
31
0.0
0
LINE
5
735
100
AcDbEntity
8
0-9扉体
6
CONTINUOUS
62
6
100
AcDbLine
10
1016.063000000000
20
2292.647000000000
30
0.0
11
1018.663000000000
21
2292.647000000000
31
0.0
0
LINE
5
736
100
AcDbEntity
8
0-9扉体
6
CONTINUOUS
62
6
100
AcDbLine
10
1018.663000000000
20
2261.647000000000
30
0.0
11
1018.663000000000
21
2326.147000000000
31
0.0
0
LINE
5
737
100
AcDbEntity
8
0-9扉体
6
CONTINUOUS
62
6
100
AcDbLine
10
1027.663000000000
20
2261.647000000000
30
0.0
11
1027.663000000000
21
2326.147000000000
31
0.0
0
LINE
5
738
100
AcDbEntity
8
0-9扉体
6
CONTINUOUS
62
6
100
AcDbLine
10
1005.163000000000
20
2316.647000000000
30
0.0
11
1005.163000000000
21
2300.647000000000
31
0.0
0
LINE
5
739
100
AcDbEntity
8
0-9扉体
6
CONTINUOUS
62
6
100
AcDbLine
10
1005.163000000000
20
2316.647000000000
30
0.0
11
1016.063000000000
21
2316.647000000000
31
0.0
0
LINE
5
73a
100
AcDbEntity
8
0-9扉体
6
CONTINUOUS
62
6
100
AcDbLine
10
1025.293000000000
20
2326.147000000000
30
0.0
11
1029.663000000000
21
2330.516000000000
31
0.0
0
LINE
5
73b
100
AcDbEntity
8
0-9扉体
6
CONTINUOUS
62
6
100
AcDbLine
10
1026.707000000000
20
2326.147000000000
30
0.0
11
1029.663000000000
21
2329.103000000000
31
0.0
0
LINE
5
73c
100
AcDbEntity
8
0-6戸当り
6
CONTINUOUS
62
2
100
AcDbLine
10
1029.663000000000
20
2262.647000000000
30
0.0
11
1029.663000000000
21
2342.647000000000
31
0.0
0
LINE
5
73d
100
AcDbEntity
8
0-9扉体
6
CONTINUOUS
62
6
100
AcDbLine
10
1091.263000000000
20
2324.647000000000
30
0.0
11
1091.263000000000
21
2292.647000000000
31
0.0
0
LINE
5
73e
100
AcDbEntity
8
0-9扉体
6
CONTINUOUS
62
6
100
AcDbLine
10
1091.263000000000
20
2324.647000000000
30
0.0
11
1088.663000000000
21
2324.647000000000
31
0.0
0
LINE
5
73f
100
AcDbEntity
8
0-9扉体
6
CONTINUOUS
62
6
100
AcDbLine
10
1091.263000000000
20
2292.647000000000
30
0.0
11
1088.663000000000
21
2292.647000000000
31
0.0
0
LINE
5
740
100
AcDbEntity
8
0-9扉体
6
CONTINUOUS
62
6
100
AcDbLine
10
1102.163000000000
20
2300.647000000000
30
0.0
11
1091.263000000000
21
2300.647000000000
31
0.0
0
LINE
5
741
100
AcDbEntity
8
0-9扉体
6
CONTINUOUS
62
6
100
AcDbLine
10
1079.663000000000
20
2300.647000000000
30
0.0
11
1077.663000000000
21
2300.647000000000
31
0.0
0
LINE
5
742
100
AcDbEntity
8
0-9扉体
6
CONTINUOUS
62
6
100
AcDbLine
10
1079.663000000000
20
2316.647000000000
30
0.0
11
1077.663000000000
21
2316.647000000000
31
0.0
0
LINE
5
743
100
AcDbEntity
8
0-9扉体
6
CONTINUOUS
62
6
100
AcDbLine
10
1088.663000000000
20
2326.147000000000
30
0.0
11
1079.663000000000
21
2326.147000000000
31
0.0
0
LINE
5
744
100
AcDbEntity
8
0-9扉体
6
CONTINUOUS
62
6
100
AcDbLine
10
1088.663000000000
20
2291.147000000000
30
0.0
11
1079.663000000000
21
2291.147000000000
31
0.0
0
LINE
5
745
100
AcDbEntity
8
0-9扉体
6
CONTINUOUS
62
6
100
AcDbLine
10
1079.663000000000
20
2261.647000000000
30
0.0
11
1079.663000000000
21
2326.147000000000
31
0.0
0
LINE
5
746
100
AcDbEntity
8
0-9扉体
6
CONTINUOUS
62
6
100
AcDbLine
10
1088.663000000000
20
2261.647000000000
30
0.0
11
1088.663000000000
21
2326.147000000000
31
0.0
0
LINE
5
747
100
AcDbEntity
8
0-9扉体
6
CONTINUOUS
62
6
100
AcDbLine
10
1102.163000000000
20
2316.647000000000
30
0.0
11
1091.263000000000
21
2316.647000000000
31
0.0
0
LINE
5
748
100
AcDbEntity
8
0-9扉体
6
CONTINUOUS
62
6
100
AcDbLine
10
1102.163000000000
20
2316.647000000000
30
0.0
11
1102.163000000000
21
2300.647000000000
31
0.0
0
LINE
5
749
100
AcDbEntity
8
0-9扉体
6
CONTINUOUS
62
6
100
AcDbLine
10
1077.663000000000
20
2340.232000000000
30
0.0
11
1080.078000000000
21
2342.647000000000
31
0.0
0
LINE
5
74a
100
AcDbEntity
8
0-9扉体
6
CONTINUOUS
62
6
100
AcDbLine
10
1077.663000000000
20
2338.818000000000
30
0.0
11
1081.492000000000
21
2342.647000000000
31
0.0
0
LINE
5
74b
100
AcDbEntity
8
0-6戸当り
6
CONTINUOUS
62
2
100
AcDbLine
10
1077.663000000000
20
2262.647000000000
30
0.0
11
1077.663000000000
21
2342.647000000000
31
0.0
0
LINE
5
74c
100
AcDbEntity
8
0-6戸当り
6
DOT
62
2
100
AcDbLine
10
1029.663000000000
20
2272.647000000000
30
0.0
11
1077.663000000000
21
2272.647000000000
31
0.0
0
LINE
5
74d
100
AcDbEntity
8
0-6戸当り
6
CONTINUOUS
62
2
100
AcDbLine
10
1029.663000000000
20
2262.647000000000
30
0.0
11
1077.663000000000
21
2262.647000000000
31
0.0
0
LINE
5
74e
100
AcDbEntity
8
0-9扉体
6
CONTINUOUS
62
6
100
AcDbLine
10
1077.663000000000
20
2329.676000000000
30
0.0
11
1090.634000000000
21
2342.647000000000
31
0.0
0
LINE
5
74f
100
AcDbEntity
8
0-9扉体
6
CONTINUOUS
62
6
100
AcDbLine
10
1077.663000000000
20
2331.090000000000
30
0.0
11
1089.220000000000
21
2342.647000000000
31
0.0
0
LINE
5
750
100
AcDbEntity
8
0-9扉体
6
CONTINUOUS
62
6
100
AcDbLine
10
1014.065000000000
20
2322.647000000000
30
0.0
11
1029.663000000000
21
2338.245000000000
31
0.0
0
LINE
5
751
100
AcDbEntity
8
0-9扉体
6
CONTINUOUS
62
6
100
AcDbLine
10
1012.651000000000
20
2322.647000000000
30
0.0
11
1029.663000000000
21
2339.659000000000
31
0.0
0
LINE
5
752
100
AcDbEntity
8
0-5基準線
6
CENTER2
62
7
100
AcDbLine
10
998.341000000000
20
2308.647000000000
30
0.0
11
1105.153000000000
21
2308.647000000000
31
0.0
0
LINE
5
753
100
AcDbEntity
8
0-9扉体
6
CONTINUOUS
62
6
100
AcDbLine
10
1088.276000000000
20
2326.147000000000
30
0.0
11
1104.776000000000
21
2342.647000000000
31
0.0
0
LINE
5
754
100
AcDbEntity
8
0-9扉体
6
CONTINUOUS
62
6
100
AcDbLine
10
1086.862000000000
20
2326.147000000000
30
0.0
11
1103.362000000000
21
2342.647000000000
31
0.0
0
LINE
5
755
100
AcDbEntity
8
0-9扉体
6
CONTINUOUS
62
4
100
AcDbLine
10
893.664000000000
20
1435.188000000000
30
0.0
11
1693.663000000000
21
1435.188000000000
31
0.0
0
LINE
5
756
100
AcDbEntity
8
0-9扉体
6
DOT
62
4
100
AcDbLine
10
899.664000000000
20
635.188000000000
30
0.0
11
899.664000000000
21
1435.188000000000
31
0.0
0
LINE
5
757
100
AcDbEntity
8
0-9扉体
6
DOT
62
4
100
AcDbLine
10
899.664000000000
20
1429.188000000000
30
0.0
11
1687.663000000000
21
1429.188000000000
31
0.0
0
POLYLINE
5
758
100
AcDbEntity
8
0-4陰線
6
DOT
62
109
100
AcDb2dPolyline
66
1
10
0.0
20
0.0
30
0.0
70
0
0
VERTEX
5
759
100
AcDbEntity
8
0-4陰線
6
DOT
62
109
100
AcDbVertex
100
AcDb2dVertex
10
943.663000000000
20
685.188000000000
30
0.0
0
VERTEX
5
75a
100
AcDbEntity
8
0-4陰線
6
DOT
62
109
100
AcDbVertex
100
AcDb2dVertex
10
943.663000000000
20
1385.188000000000
30
0.0
0
VERTEX
5
75b
100
AcDbEntity
8
0-4陰線
6
DOT
62
109
100
AcDbVertex
100
AcDb2dVertex
10
1643.663000000000
20
1385.188000000000
30
0.0
0
SEQEND
5
75c
100
AcDbEntity
8
0-4陰線
0
LINE
5
75d
100
AcDbEntity
8
0-9扉体
6
DOT
62
4
100
AcDbLine
10
1687.663000000000
20
1435.188000000000
30
0.0
11
1687.663000000000
21
635.188000000000
31
0.0
0
LINE
5
75e
100
AcDbEntity
8
0-9扉体
6
DOT
62
6
100
AcDbLine
10
1687.663000000000
20
1014.188000000000
30
0.0
11
899.664000000000
21
1014.188000000000
31
0.0
0
LINE
5
75f
100
AcDbEntity
8
0-A文字
6
CONTINUOUS
62
4
100
AcDbLine
10
1365.123000000000
20
884.084000000000
30
0.0
11
1556.686000000000
21
884.084000000000
31
0.0
0
LINE
5
760
100
AcDbEntity
8
0-9扉体
6
DOT
62
6
100
AcDbLine
10
1687.663000000000
20
641.188000000000
30
0.0
11
899.664000000000
21
641.188000000000
31
0.0
0
LINE
5
761
100
AcDbEntity
8
0-9扉体
6
CONTINUOUS
62
4
100
AcDbLine
10
893.664000000000
20
635.188000000000
30
0.0
11
893.664000000000
21
1435.188000000000
31
0.0
0
LINE
5
762
100
AcDbEntity
8
0-9扉体
6
CONTINUOUS
62
4
100
AcDbLine
10
888.663000000000
20
630.188000000000
30
0.0
11
888.663000000000
21
1440.188000000000
31
0.0
0
LINE
5
763
100
AcDbEntity
8
0-9扉体
6
CONTINUOUS
62
6
100
AcDbLine
10
1693.663000000000
20
635.188000000000
30
0.0
11
893.664000000000
21
635.188000000000
31
0.0
0
LINE
5
764
100
AcDbEntity
8
0-9扉体
6
CONTINUOUS
62
4
100
AcDbLine
10
1693.663000000000
20
1435.188000000000
30
0.0
11
1693.663000000000
21
635.188000000000
31
0.0
0
POLYLINE
5
765
100
AcDbEntity
8
0-9扉体
6
CONTINUOUS
62
  4
100
AcDb2dPolyline
66
1
10
0.0
20
0.0
30
0.0
70
0
0
VERTEX
5
766
100
AcDbEntity
8
0-9扉体
6
CONTINUOUS
62
  4
100
AcDbVertex
100
AcDb2dVertex
10
1698.664000000000
20
1440.188000000000
30
0.0
0
VERTEX
5
767
100
AcDbEntity
8
0-9扉体
6
CONTINUOUS
62
  4
100
AcDbVertex
100
AcDb2dVertex
10
1698.664000000000
20
630.188000000000
30
0.0
0
VERTEX
5
768
100
AcDbEntity
8
0-9扉体
6
CONTINUOUS
62
  4
100
AcDbVertex
100
AcDb2dVertex
10
888.663000000000
20
630.188000000000
30
0.0
0
SEQEND
5
769
100
AcDbEntity
8
0-9扉体
0
LINE
5
76a
100
AcDbEntity
8
0-9扉体
6
CONTINUOUS
62
4
100
AcDbLine
10
888.663000000000
20
1440.188000000000
30
0.0
11
978.663000000000
21
1440.188000000000
31
0.0
0
LINE
5
76b
100
AcDbEntity
8
0-9扉体
6
CONTINUOUS
62
4
100
AcDbLine
10
1128.663000000000
20
1440.188000000000
30
0.0
11
1261.164000000000
21
1440.188000000000
31
0.0
0
LINE
5
76c
100
AcDbEntity
8
0-9扉体
6
CONTINUOUS
62
4
100
AcDbLine
10
1608.664000000000
20
1440.188000000000
30
0.0
11
1698.664000000000
21
1440.188000000000
31
0.0
0
LINE
5
76d
100
AcDbEntity
8
0-9扉体
6
DOT
62
6
100
AcDbLine
10
1289.663000000000
20
1429.188000000000
30
0.0
11
1289.663000000000
21
1370.188000000000
31
0.0
0
LINE
5
76e
100
AcDbEntity
8
0-9扉体
6
DOT
62
6
100
AcDbLine
10
1297.663000000000
20
1429.188000000000
30
0.0
11
1297.663000000000
21
1370.188000000000
31
0.0
0
LINE
5
76f
100
AcDbEntity
8
0-9扉体
6
CONTINUOUS
62
6
100
AcDbLine
10
1289.663000000000
20
1370.188000000000
30
0.0
11
1289.663000000000
21
1020.188000000000
31
0.0
0
LINE
5
770
100
AcDbEntity
8
0-9扉体
6
CONTINUOUS
62
6
100
AcDbLine
10
1297.663000000000
20
1370.188000000000
30
0.0
11
1297.663000000000
21
1020.188000000000
31
0.0
0
LINE
5
771
100
AcDbEntity
8
0-9扉体
6
CONTINUOUS
62
6
100
AcDbLine
10
1628.664000000000
20
1435.188000000000
30
0.0
11
1628.664000000000
21
635.188000000000
31
0.0
0
LINE
5
772
100
AcDbEntity
8
0-9扉体
6
DOT
62
6
100
AcDbLine
10
1289.663000000000
20
1014.188000000000
30
0.0
11
1289.663000000000
21
965.188000000000
31
0.0
0
LINE
5
773
100
AcDbEntity
8
0-9扉体
6
DOT
62
6
100
AcDbLine
10
1297.663000000000
20
1014.188000000000
30
0.0
11
1297.663000000000
21
965.188000000000
31
0.0
0
LINE
5
774
100
AcDbEntity
8
0-9扉体
6
DOT
62
6
100
AcDbLine
10
1297.663000000000
20
700.188000000000
30
0.0
11
1297.663000000000
21
641.188000000000
31
0.0
0
LINE
5
775
100
AcDbEntity
8
0-9扉体
6
DOT
62
6
100
AcDbLine
10
1289.663000000000
20
700.188000000000
30
0.0
11
1289.663000000000
21
641.188000000000
31
0.0
0
LINE
5
776
100
AcDbEntity
8
0-9扉体
6
CONTINUOUS
62
6
100
AcDbLine
10
1289.663000000000
20
965.188000000000
30
0.0
11
1289.663000000000
21
700.188000000000
31
0.0
0
LINE
5
777
100
AcDbEntity
8
0-9扉体
6
CONTINUOUS
62
6
100
AcDbLine
10
1297.663000000000
20
965.188000000000
30
0.0
11
1297.663000000000
21
700.188000000000
31
0.0
0
LINE
5
778
100
AcDbEntity
8
0-9扉体
6
CONTINUOUS
62
6
100
AcDbLine
10
958.664000000000
20
635.188000000000
30
0.0
11
958.664000000000
21
1435.188000000000
31
0.0
0
LINE
5
779
100
AcDbEntity
8
0-9扉体
6
DOT
62
6
100
AcDbLine
10
958.664000000000
20
1020.188000000000
30
0.0
11
899.663000000000
21
1020.188000000000
31
0.0
0
LINE
5
77a
100
AcDbEntity
8
0-9扉体
6
CONTINUOUS
62
6
100
AcDbLine
10
958.664000000000
20
1370.188000000000
30
0.0
11
1628.664000000000
21
1370.188000000000
31
0.0
0
LINE
5
77b
100
AcDbEntity
8
0-9扉体
6
CONTINUOUS
62
6
100
AcDbLine
10
1628.664000000000
20
1020.188000000000
30
0.0
11
958.664000000000
21
1020.188000000000
31
0.0
0
LINE
5
77c
100
AcDbEntity
8
0-9扉体
6
DOT
62
6
100
AcDbLine
10
1628.664000000000
20
1020.188000000000
30
0.0
11
1687.663000000000
21
1020.188000000000
31
0.0
0
LINE
5
77d
100
AcDbEntity
8
0-9扉体
6
CONTINUOUS
62
6
100
AcDbLine
10
1628.664000000000
20
955.188000000000
30
0.0
11
958.664000000000
21
955.188000000000
31
0.0
0
LINE
5
77e
100
AcDbEntity
8
0-9扉体
6
CONTINUOUS
62
6
100
AcDbLine
10
1628.664000000000
20
700.188000000000
30
0.0
11
958.664000000000
21
700.188000000000
31
0.0
0
LINE
5
77f
100
AcDbEntity
8
0-4陰線
6
DOT
62
109
100
AcDbLine
10
1643.663000000000
20
685.188000000000
30
0.0
11
943.663000000000
21
685.188000000000
31
0.0
0
LINE
5
780
100
AcDbEntity
8
0-4陰線
6
DOT
62
109
100
AcDbLine
10
1643.663000000000
20
1385.188000000000
30
0.0
11
1643.663000000000
21
685.188000000000
31
0.0
0
LINE
5
781
100
AcDbEntity
8
0-9扉体
6
CONTINUOUS
62
4
100
AcDbLine
10
2555.094000000000
20
1440.188000000000
30
0.0
11
2549.095000000000
21
1440.188000000000
31
0.0
0
LINE
5
782
100
AcDbEntity
8
0-9扉体
6
CONTINUOUS
62
3
100
AcDbLine
10
2555.094000000000
20
1375.188000000000
30
0.0
11
2563.094000000000
21
1375.188000000000
31
0.0
0
LINE
5
783
100
AcDbEntity
8
0-9扉体
6
CONTINUOUS
62
3
100
AcDbLine
10
2565.095000000000
20
1415.188000000000
30
0.0
11
2563.094000000000
21
1415.188000000000
31
0.0
0
LINE
5
784
100
AcDbEntity
8
0-9扉体
6
CONTINUOUS
62
3
100
AcDbLine
10
2563.094000000000
20
1414.188000000000
30
0.0
11
2569.095000000000
21
1414.188000000000
31
0.0
0
LINE
5
785
100
AcDbEntity
8
0-9扉体
6
CONTINUOUS
62
3
100
AcDbLine
10
2563.094000000000
20
1376.188000000000
30
0.0
11
2569.095000000000
21
1376.188000000000
31
0.0
0
LINE
5
786
100
AcDbEntity
8
0-9扉体
6
DOT
62
3
100
AcDbLine
10
2565.095000000000
20
1391.188000000000
30
0.0
11
2569.095000000000
21
1387.188000000000
31
0.0
0
LINE
5
787
100
AcDbEntity
8
0-9扉体
6
DOT
62
3
100
AcDbLine
10
2565.095000000000
20
1399.188000000000
30
0.0
11
2569.095000000000
21
1403.188000000000
31
0.0
0
LINE
5
788
100
AcDbEntity
8
0-9扉体
6
DOT
62
3
100
AcDbLine
10
2565.095000000000
20
1391.188000000000
30
0.0
11
2565.095000000000
21
1399.188000000000
31
0.0
0
LINE
5
789
100
AcDbEntity
8
0-9扉体
6
DOT
62
3
100
AcDbLine
10
2549.094000000000
20
1399.188000000000
30
0.0
11
2565.095000000000
21
1399.188000000000
31
0.0
0
LINE
5
78a
100
AcDbEntity
8
0-9扉体
6
DOT
62
3
100
AcDbLine
10
2549.094000000000
20
1391.188000000000
30
0.0
11
2565.095000000000
21
1391.188000000000
31
0.0
0
LINE
5
78b
100
AcDbEntity
8
0-9扉体
6
CONTINUOUS
62
3
100
AcDbLine
10
2547.494000000000
20
1386.187000000000
30
0.0
11
2549.094000000000
21
1386.187000000000
31
0.0
0
LINE
5
78c
100
AcDbEntity
8
0-9扉体
6
CONTINUOUS
62
3
100
AcDbLine
10
2547.494000000000
20
1404.188000000000
30
0.0
11
2549.094000000000
21
1404.188000000000
31
0.0
0
LINE
5
78d
100
AcDbEntity
8
0-9扉体
6
CONTINUOUS
62
3
100
AcDbLine
10
2534.095000000000
20
1391.188000000000
30
0.0
11
2534.095000000000
21
1399.188000000000
31
0.0
0
LINE
5
78e
100
AcDbEntity
8
0-9扉体
6
CONTINUOUS
62
3
100
AcDbLine
10
2547.494000000000
20
1404.188000000000
30
0.0
11
2547.494000000000
21
1386.187000000000
31
0.0
0
LINE
5
78f
100
AcDbEntity
8
0-9扉体
6
CONTINUOUS
62
7
100
AcDbLine
10
2540.995000000000
20
1388.688000000000
30
0.0
11
2541.575000000000
21
1387.682000000000
31
0.0
0
LINE
5
790
100
AcDbEntity
8
0-9扉体
6
CONTINUOUS
62
7
100
AcDbLine
10
2540.995000000000
20
1401.688000000000
30
0.0
11
2541.575000000000
21
1402.693000000000
31
0.0
0
LINE
5
791
100
AcDbEntity
8
0-9扉体
6
CONTINUOUS
62
7
100
AcDbLine
10
2540.995000000000
20
1388.688000000000
30
0.0
11
2540.995000000000
21
1401.688000000000
31
0.0
0
LINE
5
792
100
AcDbEntity
8
0-9扉体
6
CONTINUOUS
62
3
100
AcDbLine
10
2540.995000000000
20
1399.188000000000
30
0.0
11
2534.095000000000
21
1399.188000000000
31
0.0
0
LINE
5
793
100
AcDbEntity
8
0-9扉体
6
CONTINUOUS
62
3
100
AcDbLine
10
2540.995000000000
20
1391.188000000000
30
0.0
11
2534.095000000000
21
1391.188000000000
31
0.0
0
LINE
5
794
100
AcDbEntity
8
0-9扉体
6
CONTINUOUS
62
7
100
AcDbLine
10
2547.494000000000
20
1402.693000000000
30
0.0
11
2541.575000000000
21
1402.693000000000
31
0.0
0
LINE
5
795
100
AcDbEntity
8
0-9扉体
6
CONTINUOUS
62
7
100
AcDbLine
10
2547.494000000000
20
1398.940000000000
30
0.0
11
2541.575000000000
21
1398.940000000000
31
0.0
0
LINE
5
796
100
AcDbEntity
8
0-9扉体
6
CONTINUOUS
62
7
100
AcDbLine
10
2547.494000000000
20
1391.435000000000
30
0.0
11
2541.575000000000
21
1391.435000000000
31
0.0
0
LINE
5
797
100
AcDbEntity
8
0-9扉体
6
CONTINUOUS
62
7
100
AcDbLine
10
2547.494000000000
20
1387.682000000000
30
0.0
11
2541.575000000000
21
1387.682000000000
31
0.0
0
LINE
5
798
100
AcDbEntity
8
0-9扉体
6
CONTINUOUS
62
2
100
AcDbLine
10
2540.995000000000
20
1398.188000000000
30
0.0
11
2534.095000000000
21
1398.188000000000
31
0.0
0
LINE
5
799
100
AcDbEntity
8
0-9扉体
6
CONTINUOUS
62
2
100
AcDbLine
10
2540.995000000000
20
1392.188000000000
30
0.0
11
2534.095000000000
21
1392.188000000000
31
0.0
0
LINE
5
79a
100
AcDbEntity
8
0-9扉体
6
CONTINUOUS
62
3
100
AcDbLine
10
2555.094000000000
20
695.187000000000
30
0.0
11
2563.094000000000
21
695.187000000000
31
0.0
0
LINE
5
79b
100
AcDbEntity
8
0-9扉体
6
CONTINUOUS
62
3
100
AcDbLine
10
2565.095000000000
20
655.188000000000
30
0.0
11
2563.094000000000
21
655.188000000000
31
0.0
0
LINE
5
79c
100
AcDbEntity
8
0-9扉体
6
CONTINUOUS
62
3
100
AcDbLine
10
2563.094000000000
20
656.188000000000
30
0.0
11
2569.095000000000
21
656.188000000000
31
0.0
0
LINE
5
79d
100
AcDbEntity
8
0-9扉体
6
CONTINUOUS
62
3
100
AcDbLine
10
2563.094000000000
20
694.188000000000
30
0.0
11
2569.095000000000
21
694.188000000000
31
0.0
0
LINE
5
79e
100
AcDbEntity
8
0-9扉体
6
DOT
62
3
100
AcDbLine
10
2565.095000000000
20
679.188000000000
30
0.0
11
2569.095000000000
21
683.188000000000
31
0.0
0
LINE
5
79f
100
AcDbEntity
8
0-9扉体
6
DOT
62
3
100
AcDbLine
10
2565.095000000000
20
671.187000000000
30
0.0
11
2569.095000000000
21
667.187000000000
31
0.0
0
LINE
5
7a0
100
AcDbEntity
8
0-9扉体
6
DOT
62
3
100
AcDbLine
10
2565.095000000000
20
679.188000000000
30
0.0
11
2565.095000000000
21
671.187000000000
31
0.0
0
LINE
5
7a1
100
AcDbEntity
8
0-9扉体
6
DOT
62
3
100
AcDbLine
10
2549.094000000000
20
671.187000000000
30
0.0
11
2565.095000000000
21
671.187000000000
31
0.0
0
LINE
5
7a2
100
AcDbEntity
8
0-9扉体
6
DOT
62
3
100
AcDbLine
10
2549.094000000000
20
679.188000000000
30
0.0
11
2565.095000000000
21
679.188000000000
31
0.0
0
LINE
5
7a3
100
AcDbEntity
8
0-9扉体
6
CONTINUOUS
62
3
100
AcDbLine
10
2547.494000000000
20
684.188000000000
30
0.0
11
2549.094000000000
21
684.188000000000
31
0.0
0
LINE
5
7a4
100
AcDbEntity
8
0-9扉体
6
CONTINUOUS
62
3
100
AcDbLine
10
2547.494000000000
20
666.188000000000
30
0.0
11
2549.094000000000
21
666.188000000000
31
0.0
0
LINE
5
7a5
100
AcDbEntity
8
0-9扉体
6
CONTINUOUS
62
3
100
AcDbLine
10
2534.095000000000
20
679.188000000000
30
0.0
11
2534.095000000000
21
671.187000000000
31
0.0
0
LINE
5
7a6
100
AcDbEntity
8
0-9扉体
6
CONTINUOUS
62
3
100
AcDbLine
10
2547.494000000000
20
666.188000000000
30
0.0
11
2547.494000000000
21
684.188000000000
31
0.0
0
LINE
5
7a7
100
AcDbEntity
8
0-5基準線
6
CENTER2
62
7
100
AcDbLine
10
2531.691000000000
20
675.188000000000
30
0.0
11
2570.619000000000
21
675.188000000000
31
0.0
0
LINE
5
7a8
100
AcDbEntity
8
0-9扉体
6
CONTINUOUS
62
7
100
AcDbLine
10
2540.995000000000
20
681.688000000000
30
0.0
11
2541.575000000000
21
682.693000000000
31
0.0
0
LINE
5
7a9
100
AcDbEntity
8
0-9扉体
6
CONTINUOUS
62
7
100
AcDbLine
10
2540.995000000000
20
668.688000000000
30
0.0
11
2541.575000000000
21
667.682000000000
31
0.0
0
LINE
5
7aa
100
AcDbEntity
8
0-9扉体
6
CONTINUOUS
62
7
100
AcDbLine
10
2540.995000000000
20
681.688000000000
30
0.0
11
2540.995000000000
21
668.688000000000
31
0.0
0
LINE
5
7ab
100
AcDbEntity
8
0-9扉体
6
CONTINUOUS
62
3
100
AcDbLine
10
2540.995000000000
20
671.187000000000
30
0.0
11
2534.095000000000
21
671.187000000000
31
0.0
0
LINE
5
7ac
100
AcDbEntity
8
0-9扉体
6
CONTINUOUS
62
3
100
AcDbLine
10
2540.995000000000
20
679.188000000000
30
0.0
11
2534.095000000000
21
679.188000000000
31
0.0
0
LINE
5
7ad
100
AcDbEntity
8
0-9扉体
6
CONTINUOUS
62
7
100
AcDbLine
10
2547.494000000000
20
667.682000000000
30
0.0
11
2541.575000000000
21
667.682000000000
31
0.0
0
LINE
5
7ae
100
AcDbEntity
8
0-9扉体
6
CONTINUOUS
62
7
100
AcDbLine
10
2547.494000000000
20
671.435000000000
30
0.0
11
2541.575000000000
21
671.435000000000
31
0.0
0
LINE
5
7af
100
AcDbEntity
8
0-9扉体
6
CONTINUOUS
62
7
100
AcDbLine
10
2547.494000000000
20
678.941000000000
30
0.0
11
2541.575000000000
21
678.941000000000
31
0.0
0
LINE
5
7b0
100
AcDbEntity
8
0-9扉体
6
CONTINUOUS
62
7
100
AcDbLine
10
2547.494000000000
20
682.693000000000
30
0.0
11
2541.575000000000
21
682.693000000000
31
0.0
0
LINE
5
7b1
100
AcDbEntity
8
0-9扉体
6
CONTINUOUS
62
2
100
AcDbLine
10
2540.995000000000
20
672.187000000000
30
0.0
11
2534.095000000000
21
672.187000000000
31
0.0
0
LINE
5
7b2
100
AcDbEntity
8
0-9扉体
6
CONTINUOUS
62
2
100
AcDbLine
10
2540.995000000000
20
678.187000000000
30
0.0
11
2534.095000000000
21
678.187000000000
31
0.0
0
LINE
5
7b3
100
AcDbEntity
8
0-5基準線
6
CENTER2
62
7
100
AcDbLine
10
2530.751000000000
20
1395.188000000000
30
0.0
11
2570.619000000000
21
1395.188000000000
31
0.0
0
LINE
5
7b4
100
AcDbEntity
8
0-9扉体
6
CONTINUOUS
62
6
100
AcDbLine
10
2566.088000000000
20
635.237000000000
30
0.0
11
2575.045000000000
21
644.195000000000
31
0.0
0
LINE
5
7b5
100
AcDbEntity
8
0-9扉体
6
CONTINUOUS
62
6
100
AcDbLine
10
2564.635000000000
20
635.198000000000
30
0.0
11
2575.084000000000
21
645.648000000000
31
0.0
0
LINE
5
7b6
100
AcDbEntity
8
0-9扉体
6
CONTINUOUS
62
6
100
AcDbLine
10
2555.094000000000
20
652.528000000000
30
0.0
11
2563.094000000000
21
660.528000000000
31
0.0
0
LINE
5
7b7
100
AcDbEntity
8
0-9扉体
6
CONTINUOUS
62
6
100
AcDbLine
10
2555.094000000000
20
653.942000000000
30
0.0
11
2563.094000000000
21
661.942000000000
31
0.0
0
LINE
5
7b8
100
AcDbEntity
8
0-9扉体
6
CONTINUOUS
62
6
100
AcDbLine
10
2555.094000000000
20
666.670000000000
30
0.0
11
2563.094000000000
21
674.670000000000
31
0.0
0
LINE
5
7b9
100
AcDbEntity
8
0-9扉体
6
CONTINUOUS
62
6
100
AcDbLine
10
2555.094000000000
20
668.085000000000
30
0.0
11
2563.094000000000
21
676.085000000000
31
0.0
0
LINE
5
7ba
100
AcDbEntity
8
0-9扉体
6
CONTINUOUS
62
6
100
AcDbLine
10
2555.094000000000
20
680.813000000000
30
0.0
11
2563.094000000000
21
688.812000000000
31
0.0
0
LINE
5
7bb
100
AcDbEntity
8
0-9扉体
6
CONTINUOUS
62
6
100
AcDbLine
10
2555.094000000000
20
682.227000000000
30
0.0
11
2563.094000000000
21
690.227000000000
31
0.0
0
LINE
5
7bc
100
AcDbEntity
8
0-9扉体
6
CONTINUOUS
62
6
100
AcDbLine
10
2555.094000000000
20
694.955000000000
30
0.0
11
2555.327000000000
21
695.187000000000
31
0.0
0
LINE
5
7bd
100
AcDbEntity
8
0-9扉体
6
CONTINUOUS
62
6
100
AcDbLine
10
2556.608000000000
20
639.899000000000
30
0.0
11
2561.163000000000
21
644.454000000000
31
0.0
0
LINE
5
7be
100
AcDbEntity
8
0-9扉体
6
CONTINUOUS
62
6
100
AcDbLine
10
2565.828000000000
20
649.120000000000
30
0.0
11
2570.383000000000
21
653.675000000000
31
0.0
0
LINE
5
7bf
100
AcDbEntity
8
0-9扉体
6
CONTINUOUS
62
6
100
AcDbLine
10
2556.104000000000
20
640.810000000000
30
0.0
11
2561.151000000000
21
645.857000000000
31
0.0
0
LINE
5
7c0
100
AcDbEntity
8
0-9扉体
6
CONTINUOUS
62
6
100
AcDbLine
10
2564.425000000000
20
649.131000000000
30
0.0
11
2569.473000000000
21
654.178000000000
31
0.0
0
LINE
5
7c1
100
AcDbEntity
8
0-9扉体
6
CONTINUOUS
62
6
100
AcDbLine
10
2560.770000000000
20
1375.188000000000
30
0.0
11
2563.094000000000
21
1377.513000000000
31
0.0
0
LINE
5
7c2
100
AcDbEntity
8
0-9扉体
6
CONTINUOUS
62
6
100
AcDbLine
10
2559.355000000000
20
1375.188000000000
30
0.0
11
2563.094000000000
21
1378.927000000000
31
0.0
0
LINE
5
7c3
100
AcDbEntity
8
0-9扉体
6
CONTINUOUS
62
6
100
AcDbLine
10
2555.094000000000
20
1383.655000000000
30
0.0
11
2563.094000000000
21
1391.655000000000
31
0.0
0
LINE
5
7c4
100
AcDbEntity
8
0-9扉体
6
CONTINUOUS
62
6
100
AcDbLine
10
2555.094000000000
20
1385.069000000000
30
0.0
11
2563.094000000000
21
1393.069000000000
31
0.0
0
LINE
5
7c5
100
AcDbEntity
8
0-9扉体
6
CONTINUOUS
62
6
100
AcDbLine
10
2555.094000000000
20
1397.797000000000
30
0.0
11
2563.094000000000
21
1405.797000000000
31
0.0
0
LINE
5
7c6
100
AcDbEntity
8
0-9扉体
6
CONTINUOUS
62
6
100
AcDbLine
10
2555.094000000000
20
1399.211000000000
30
0.0
11
2563.094000000000
21
1407.211000000000
31
0.0
0
LINE
5
7c7
100
AcDbEntity
8
0-9扉体
6
CONTINUOUS
62
6
100
AcDbLine
10
2555.139000000000
20
1426.126000000000
30
0.0
11
2564.156000000000
21
1435.144000000000
31
0.0
0
LINE
5
7c8
100
AcDbEntity
8
0-9扉体
6
CONTINUOUS
62
6
100
AcDbLine
10
2555.458000000000
20
1427.860000000000
30
0.0
11
2562.423000000000
21
1434.824000000000
31
0.0
0
LINE
5
7c9
100
AcDbEntity
8
0-9扉体
6
CONTINUOUS
62
6
100
AcDbLine
10
2568.687000000000
20
1426.946000000000
30
0.0
11
2573.023000000000
21
1431.282000000000
31
0.0
0
LINE
5
7ca
100
AcDbEntity
8
0-9扉体
6
CONTINUOUS
62
6
100
AcDbLine
10
2555.094000000000
20
1411.939000000000
30
0.0
11
2564.403000000000
21
1421.248000000000
31
0.0
0
LINE
5
7cb
100
AcDbEntity
8
0-9扉体
6
CONTINUOUS
62
6
100
AcDbLine
10
2569.035000000000
20
1425.879000000000
30
0.0
11
2573.601000000000
21
1430.446000000000
31
0.0
0
LINE
5
7cc
100
AcDbEntity
8
0-A文字
6
CONTINUOUS
62
7
100
AcDbLine
10
2152.113000000000
20
1055.188000000000
30
0.0
11
2352.812000000000
21
1055.188000000000
31
0.0
0
LINE
5
7cd
100
AcDbEntity
8
0-A文字
6
CONTINUOUS
62
7
100
AcDbLine
10
2152.113000000000
20
1015.188000000000
30
0.0
11
2352.812000000000
21
1015.188000000000
31
0.0
0
LINE
5
7ce
100
AcDbEntity
8
0-A文字
6
CONTINUOUS
62
7
100
AcDbLine
10
2152.113000000000
20
1055.188000000000
30
0.0
11
2152.113000000000
21
1015.188000000000
31
0.0
0
LINE
5
7cf
100
AcDbEntity
8
0-A文字
6
CONTINUOUS
62
7
100
AcDbLine
10
2352.812000000000
20
1055.188000000000
30
0.0
11
2352.812000000000
21
1075.188000000000
31
0.0
0
LINE
5
7d0
100
AcDbEntity
8
0-A文字
6
CONTINUOUS
62
7
100
AcDbLine
10
2352.812000000000
20
1015.188000000000
30
0.0
11
2352.812000000000
21
995.187000000000
31
0.0
0
LINE
5
7d1
100
AcDbEntity
8
0-A文字
6
CONTINUOUS
62
7
100
AcDbLine
10
2352.812000000000
20
1075.188000000000
30
0.0
11
2422.095000000000
21
1035.188000000000
31
0.0
0
LINE
5
7d2
100
AcDbEntity
8
0-A文字
6
CONTINUOUS
62
7
100
AcDbLine
10
2352.812000000000
20
995.187000000000
30
0.0
11
2422.095000000000
21
1035.188000000000
31
0.0
0
LINE
5
7d3
100
AcDbEntity
8
0-8寸法
6
CONTINUOUS
62
4
100
AcDbLine
10
2141.886000000000
20
1535.188000000000
30
0.0
11
2340.115000000000
21
1535.188000000000
31
0.0
0
LINE
5
7d4
100
AcDbEntity
8
0-8寸法
6
CONTINUOUS
62
4
100
AcDbLine
10
2156.195000000000
20
1525.187000000000
30
0.0
11
2326.137000000000
21
1525.187000000000
31
0.0
0
LINE
5
7d5
100
AcDbEntity
8
0-8寸法
6
CONTINUOUS
62
4
100
AcDbLine
10
2174.587000000000
20
1515.188000000000
30
0.0
11
2305.538000000000
21
1515.188000000000
31
0.0
0
LINE
5
7d6
100
AcDbEntity
8
0-8寸法
6
CONTINUOUS
62
4
100
AcDbLine
10
2194.450000000000
20
1505.188000000000
30
0.0
11
2287.146000000000
21
1505.188000000000
31
0.0
0
LINE
5
7d7
100
AcDbEntity
8
0-8寸法
6
CONTINUOUS
62
4
100
AcDbLine
10
2212.842000000000
20
1495.188000000000
30
0.0
11
2265.811000000000
21
1495.188000000000
31
0.0
0
LINE
5
7d8
100
AcDbEntity
8
0-8寸法
6
CONTINUOUS
62
4
100
AcDbLine
10
2225.349000000000
20
1485.187000000000
30
0.0
11
2251.098000000000
21
1485.187000000000
31
0.0
0
LINE
5
7d9
100
AcDbEntity
8
0-8寸法
6
CONTINUOUS
62
4
100
AcDbLine
10
2072.095000000000
20
635.188000000000
30
0.0
11
2072.095000000000
21
1535.188000000000
31
0.0
0
LINE
5
7da
100
AcDbEntity
8
0-8寸法
6
CONTINUOUS
62
4
100
AcDbLine
10
2114.977000000000
20
1535.188000000000
30
0.0
11
2062.095000000000
21
1535.188000000000
31
0.0
0
LINE
5
7db
100
AcDbEntity
8
0-8寸法
6
CONTINUOUS
62
4
100
AcDbLine
10
2072.095000000000
20
635.188000000000
30
0.0
11
2066.919000000000
21
654.506000000000
31
0.0
0
LINE
5
7dc
100
AcDbEntity
8
0-8寸法
6
CONTINUOUS
62
4
100
AcDbLine
10
2072.095000000000
20
635.188000000000
30
0.0
11
2077.271000000000
21
654.506000000000
31
0.0
0
LINE
5
7dd
100
AcDbEntity
8
0-8寸法
6
CONTINUOUS
62
4
100
AcDbLine
10
2072.095000000000
20
1535.188000000000
30
0.0
11
2066.919000000000
21
1515.869000000000
31
0.0
0
LINE
5
7de
100
AcDbEntity
8
0-8寸法
6
CONTINUOUS
62
4
100
AcDbLine
10
2072.095000000000
20
1535.188000000000
30
0.0
11
2077.271000000000
21
1515.869000000000
31
0.0
0
LINE
5
7df
100
AcDbEntity
8
0-8寸法
6
CONTINUOUS
62
4
100
AcDbLine
10
2555.094000000000
20
1185.188000000000
30
0.0
11
2574.413000000000
21
1190.364000000000
31
0.0
0
LINE
5
7e0
100
AcDbEntity
8
0-8寸法
6
CONTINUOUS
62
4
100
AcDbLine
10
2555.094000000000
20
1185.188000000000
30
0.0
11
2574.413000000000
21
1180.011000000000
31
0.0
0
LINE
5
7e1
100
AcDbEntity
8
0-9扉体
6
CONTINUOUS
62
4
100
AcDbLine
10
2549.095000000000
20
1440.188000000000
30
0.0
11
2549.095000000000
21
1098.928000000000
31
0.0
0
LINE
5
7e2
100
AcDbEntity
8
0-9扉体
6
CONTINUOUS
62
6
100
AcDbLine
10
2555.094000000000
20
1413.354000000000
30
0.0
11
2563.336000000000
21
1421.595000000000
31
0.0
0
LINE
5
7e3
100
AcDbEntity
8
0-8寸法
6
CONTINUOUS
62
4
100
AcDbLine
10
2401.094000000000
20
1385.188000000000
30
0.0
11
2395.918000000000
21
1365.869000000000
31
0.0
0
LINE
5
7e4
100
AcDbEntity
8
0-8寸法
6
CONTINUOUS
62
4
100
AcDbLine
10
2401.094000000000
20
1385.188000000000
30
0.0
11
2406.271000000000
21
1365.869000000000
31
0.0
0
LINE
5
7e5
100
AcDbEntity
8
0-8寸法
6
CONTINUOUS
62
4
100
AcDbLine
10
2401.094000000000
20
1485.188000000000
30
0.0
11
2395.918000000000
21
1504.506000000000
31
0.0
0
LINE
5
7e6
100
AcDbEntity
8
0-8寸法
6
CONTINUOUS
62
4
100
AcDbLine
10
2401.094000000000
20
1485.188000000000
30
0.0
11
2406.271000000000
21
1504.506000000000
31
0.0
0
LINE
5
7e7
100
AcDbEntity
8
0-8寸法
6
CONTINUOUS
62
4
100
AcDbLine
10
2504.443000000000
20
1485.188000000000
30
0.0
11
2391.094000000000
21
1485.188000000000
31
0.0
0
POLYLINE
5
7e8
100
AcDbEntity
8
0-8寸法
6
CONTINUOUS
62
  4
100
AcDb2dPolyline
66
1
10
0.0
20
0.0
30
0.0
70
0
0
VERTEX
5
7e9
100
AcDbEntity
8
0-8寸法
6
CONTINUOUS
62
  4
100
AcDbVertex
100
AcDb2dVertex
10
2401.094000000000
20
1315.001000000000
30
0.0
0
VERTEX
5
7ea
100
AcDbEntity
8
0-8寸法
6
CONTINUOUS
62
  4
100
AcDbVertex
100
AcDb2dVertex
10
2401.094000000000
20
1435.188000000000
30
0.0
0
VERTEX
5
7eb
100
AcDbEntity
8
0-8寸法
6
CONTINUOUS
62
  4
100
AcDbVertex
100
AcDb2dVertex
10
2401.094000000000
20
1557.762000000000
30
0.0
0
SEQEND
5
7ec
100
AcDbEntity
8
0-8寸法
0
LINE
5
7ed
100
AcDbEntity
8
0-9扉体
6
CONTINUOUS
62
3
100
AcDbLine
10
2563.094000000000
20
1202.005000000000
30
0.0
11
2563.094000000000
21
1370.810000000000
31
0.0
0
LINE
5
7ee
100
AcDbEntity
8
0-9扉体
6
CONTINUOUS
62
3
100
AcDbLine
10
2563.094000000000
20
1375.188000000000
30
0.0
11
2563.094000000000
21
1415.188000000000
31
0.0
0
LINE
5
7ef
100
AcDbEntity
8
0-9扉体
6
CONTINUOUS
62
3
100
AcDbLine
10
2569.095000000000
20
1202.005000000000
30
0.0
11
2569.095000000000
21
1370.810000000000
31
0.0
0
LINE
5
7f0
100
AcDbEntity
8
0-9扉体
6
CONTINUOUS
62
3
100
AcDbLine
10
2569.095000000000
20
1376.188000000000
30
0.0
11
2569.095000000000
21
1414.188000000000
31
0.0
0
LINE
5
7f1
100
AcDbEntity
8
0-9扉体
6
CONTINUOUS
62
3
100
AcDbLine
10
2563.094000000000
20
1169.454000000000
30
0.0
11
2563.094000000000
21
703.501000000000
31
0.0
0
LINE
5
7f2
100
AcDbEntity
8
0-9扉体
6
CONTINUOUS
62
3
100
AcDbLine
10
2563.094000000000
20
695.187000000000
30
0.0
11
2563.094000000000
21
655.188000000000
31
0.0
0
LINE
5
7f3
100
AcDbEntity
8
0-9扉体
6
CONTINUOUS
62
3
100
AcDbLine
10
2569.095000000000
20
1169.454000000000
30
0.0
11
2569.095000000000
21
703.501000000000
31
0.0
0
LINE
5
7f4
100
AcDbEntity
8
0-9扉体
6
CONTINUOUS
62
3
100
AcDbLine
10
2569.095000000000
20
694.188000000000
30
0.0
11
2569.095000000000
21
656.188000000000
31
0.0
0
LINE
5
7f5
100
AcDbEntity
8
0-9扉体
6
CONTINUOUS
62
4
100
AcDbLine
10
2549.095000000000
20
1076.115000000000
30
0.0
11
2549.095000000000
21
630.188000000000
31
0.0
0
POLYLINE
5
7f6
100
AcDbEntity
8
0-9扉体
6
CONTINUOUS
62
  4
100
AcDb2dPolyline
66
1
10
0.0
20
0.0
30
0.0
70
0
0
VERTEX
5
7f7
100
AcDbEntity
8
0-9扉体
6
CONTINUOUS
62
  4
100
AcDbVertex
100
AcDb2dVertex
10
2555.094000000000
20
1440.188000000000
30
0.0
0
VERTEX
5
7f8
100
AcDbEntity
8
0-9扉体
6
CONTINUOUS
62
  4
100
AcDbVertex
100
AcDb2dVertex
10
2555.094000000000
20
630.188000000000
30
0.0
0
VERTEX
5
7f9
100
AcDbEntity
8
0-9扉体
6
CONTINUOUS
62
  4
100
AcDbVertex
100
AcDb2dVertex
10
2549.095000000000
20
630.188000000000
30
0.0
0
SEQEND
5
7fa
100
AcDbEntity
8
0-9扉体
0
LINE
5
7fb
100
AcDbEntity
8
0-5基準線
6
CENTER2
62
7
100
AcDbLine
10
2533.595000000000
20
1505.188000000000
30
0.0
11
2533.595000000000
21
1465.188000000000
31
0.0
0
LINE
5
7fc
100
AcDbEntity
8
0-5基準線
6
CENTER2
62
7
100
AcDbLine
10
2484.886000000000
20
1485.188000000000
30
0.0
11
2552.834000000000
21
1485.188000000000
31
0.0
0
LINE
5
7fd
100
AcDbEntity
8
0-9扉体
6
CONTINUOUS
62
4
100
AcDbLine
10
2484.595000000000
20
1435.188000000000
30
0.0
11
2549.095000000000
21
1435.188000000000
31
0.0
0
LINE
5
7fe
100
AcDbEntity
8
0-8寸法
6
CONTINUOUS
62
4
100
AcDbLine
10
2482.101000000000
20
1435.188000000000
30
0.0
11
2391.094000000000
21
1435.188000000000
31
0.0
0
LINE
5
7ff
100
AcDbEntity
8
0-8寸法
6
CONTINUOUS
62
4
100
AcDbLine
10
2482.101000000000
20
1385.188000000000
30
0.0
11
2391.094000000000
21
1385.188000000000
31
0.0
0
LINE
5
800
100
AcDbEntity
8
0-9扉体
6
CONTINUOUS
62
6
100
AcDbLine
10
2484.095000000000
20
1435.188000000000
30
0.0
11
2549.095000000000
21
1435.188000000000
31
0.0
0
LINE
5
801
100
AcDbEntity
8
0-9扉体
6
CONTINUOUS
62
6
100
AcDbLine
10
2549.095000000000
20
1426.188000000000
30
0.0
11
2499.094000000000
21
1426.188000000000
31
0.0
0
LINE
5
802
100
AcDbEntity
8
0-9扉体
6
CONTINUOUS
62
6
100
AcDbLine
10
2484.095000000000
20
1020.188000000000
30
0.0
11
2549.095000000000
21
1020.188000000000
31
0.0
0
LINE
5
803
100
AcDbEntity
8
0-8寸法
6
CONTINUOUS
62
4
100
AcDbLine
10
2475.723000000000
20
635.188000000000
30
0.0
11
2062.095000000000
21
635.188000000000
31
0.0
0
LINE
5
804
100
AcDbEntity
8
0-9扉体
6
CONTINUOUS
62
6
100
AcDbLine
10
2484.095000000000
20
635.188000000000
30
0.0
11
2549.095000000000
21
635.188000000000
31
0.0
0
LINE
5
805
100
AcDbEntity
8
0-9扉体
6
CONTINUOUS
62
6
100
AcDbLine
10
2549.095000000000
20
1011.188000000000
30
0.0
11
2499.094000000000
21
1011.188000000000
31
0.0
0
LINE
5
806
100
AcDbEntity
8
0-9扉体
6
CONTINUOUS
62
6
100
AcDbLine
10
2549.095000000000
20
644.188000000000
30
0.0
11
2499.094000000000
21
644.188000000000
31
0.0
0
LINE
5
807
100
AcDbEntity
8
0-9扉体
6
CONTINUOUS
62
6
100
AcDbLine
10
2484.095000000000
20
635.188000000000
30
0.0
11
2484.095000000000
21
1435.188000000000
31
0.0
0
LINE
5
808
100
AcDbEntity
8
0-9扉体
6
CONTINUOUS
62
6
100
AcDbLine
10
2490.094000000000
20
700.188000000000
30
0.0
11
2484.095000000000
21
700.188000000000
31
0.0
0
LINE
5
809
100
AcDbEntity
8
0-9扉体
6
CONTINUOUS
62
6
100
AcDbLine
10
2493.094000000000
20
697.188000000000
30
0.0
11
2493.094000000000
21
650.188000000000
31
0.0
0
LINE
5
80a
100
AcDbEntity
8
0-9扉体
6
CONTINUOUS
62
6
100
AcDbLine
10
2490.094000000000
20
955.188000000000
30
0.0
11
2484.095000000000
21
955.188000000000
31
0.0
0
LINE
5
80b
100
AcDbEntity
8
0-9扉体
6
CONTINUOUS
62
6
100
AcDbLine
10
2493.094000000000
20
958.188000000000
30
0.0
11
2493.094000000000
21
1005.188000000000
31
0.0
0
LINE
5
80c
100
AcDbEntity
8
0-9扉体
6
CONTINUOUS
62
6
100
AcDbLine
10
2490.094000000000
20
1370.188000000000
30
0.0
11
2484.095000000000
21
1370.188000000000
31
0.0
0
LINE
5
80d
100
AcDbEntity
8
0-9扉体
6
CONTINUOUS
62
6
100
AcDbLine
10
2493.094000000000
20
1373.188000000000
30
0.0
11
2493.094000000000
21
1420.188000000000
31
0.0
0
LINE
5
80e
100
AcDbEntity
8
0-8寸法
6
CONTINUOUS
62
4
100
AcDbLine
10
2484.095000000000
20
1185.188000000000
30
0.0
11
2464.776000000000
21
1190.364000000000
31
0.0
0
LINE
5
80f
100
AcDbEntity
8
0-8寸法
6
CONTINUOUS
62
4
100
AcDbLine
10
2484.095000000000
20
1185.188000000000
30
0.0
11
2464.776000000000
21
1180.011000000000
31
0.0
0
LINE
5
810
100
AcDbEntity
8
0-9扉体
6
CONTINUOUS
62
4
100
AcDbLine
10
2491.595000000000
20
1444.188000000000
30
0.0
11
2491.595000000000
21
1435.188000000000
31
0.0
0
POLYLINE
5
811
100
AcDbEntity
8
0-9扉体
6
CONTINUOUS
62
  4
100
AcDb2dPolyline
66
1
10
0.0
20
0.0
30
0.0
70
0
0
VERTEX
5
812
100
AcDbEntity
8
0-9扉体
6
CONTINUOUS
62
  4
100
AcDbVertex
100
AcDb2dVertex
10
2491.595000000000
20
1444.188000000000
30
0.0
0
VERTEX
5
813
100
AcDbEntity
8
0-9扉体
6
CONTINUOUS
62
  4
100
AcDbVertex
100
AcDb2dVertex
10
2541.595000000000
20
1444.188000000000
30
0.0
0
VERTEX
5
814
100
AcDbEntity
8
0-9扉体
6
CONTINUOUS
62
  4
100
AcDbVertex
100
AcDb2dVertex
10
2541.595000000000
20
1435.188000000000
30
0.0
0
SEQEND
5
815
100
AcDbEntity
8
0-9扉体
0
LINE
5
816
100
AcDbEntity
8
0-9扉体
6
CONTINUOUS
62
4
100
AcDbLine
10
2541.595000000000
20
1444.188000000000
30
0.0
11
2558.595000000000
21
1461.188000000000
31
0.0
0
LINE
5
817
100
AcDbEntity
8
0-8寸法
6
CONTINUOUS
62
4
100
AcDbLine
10
2668.794000000000
20
1185.188000000000
30
0.0
11
2356.507000000000
21
1185.188000000000
31
0.0
0
LINE
5
818
100
AcDbEntity
8
0-5基準線
6
CENTER2
62
7
100
AcDbLine
10
2549.149000000000
20
1515.188000000000
30
0.0
11
2682.047000000000
21
1515.188000000000
31
0.0
0
LINE
5
819
100
AcDbEntity
8
0-6戸当り
6
CONTINUOUS
62
7
100
AcDbLine
10
2682.095000000000
20
1509.187000000000
30
0.0
11
2670.095000000000
21
1521.187000000000
31
0.0
0
LINE
5
81a
100
AcDbEntity
8
0-6戸当り
6
CONTINUOUS
62
7
100
AcDbLine
10
2587.061000000000
20
1509.187000000000
30
0.0
11
2682.095000000000
21
1509.187000000000
31
0.0
0
LINE
5
81b
100
AcDbEntity
8
0-6戸当り
6
CONTINUOUS
62
7
100
AcDbLine
10
2587.095000000000
20
1521.187000000000
30
0.0
11
2670.095000000000
21
1521.187000000000
31
0.0
0
LINE
5
81c
100
AcDbEntity
8
0-6戸当り
6
CONTINUOUS
62
7
100
AcDbLine
10
2587.095000000000
20
1510.187000000000
30
0.0
11
2681.095000000000
21
1510.187000000000
31
0.0
0
LINE
5
81d
100
AcDbEntity
8
0-6戸当り
6
CONTINUOUS
62
7
100
AcDbLine
10
2587.095000000000
20
1520.187000000000
30
0.0
11
2670.927000000000
21
1520.187000000000
31
0.0
0
LINE
5
81e
100
AcDbEntity
8
0-6戸当り
6
CONTINUOUS
62
7
100
AcDbLine
10
984.663000000000
20
2449.647000000000
30
0.0
11
972.663000000000
21
2437.648000000000
31
0.0
0
LINE
5
81f
100
AcDbEntity
8
0-6戸当り
6
CONTINUOUS
62
7
100
AcDbLine
10
984.663000000000
20
2354.613000000000
30
0.0
11
984.663000000000
21
2449.647000000000
31
0.0
0
LINE
5
820
100
AcDbEntity
8
0-6戸当り
6
CONTINUOUS
62
7
100
AcDbLine
10
972.663000000000
20
2354.647000000000
30
0.0
11
972.663000000000
21
2437.648000000000
31
0.0
0
LINE
5
821
100
AcDbEntity
8
0-6戸当り
6
CONTINUOUS
62
7
100
AcDbLine
10
983.663000000000
20
2354.647000000000
30
0.0
11
983.663000000000
21
2448.647000000000
31
0.0
0
LINE
5
822
100
AcDbEntity
8
0-6戸当り
6
CONTINUOUS
62
7
100
AcDbLine
10
973.663000000000
20
2354.647000000000
30
0.0
11
973.663000000000
21
2438.479000000000
31
0.0
0
LINE
5
823
100
AcDbEntity
8
0-6戸当り
6
CONTINUOUS
62
7
100
AcDbLine
10
1134.663000000000
20
2449.647000000000
30
0.0
11
1122.663000000000
21
2437.648000000000
31
0.0
0
LINE
5
824
100
AcDbEntity
8
0-6戸当り
6
CONTINUOUS
62
7
100
AcDbLine
10
1134.663000000000
20
2354.613000000000
30
0.0
11
1134.663000000000
21
2449.647000000000
31
0.0
0
LINE
5
825
100
AcDbEntity
8
0-6戸当り
6
CONTINUOUS
62
7
100
AcDbLine
10
1122.663000000000
20
2354.647000000000
30
0.0
11
1122.663000000000
21
2437.648000000000
31
0.0
0
LINE
5
826
100
AcDbEntity
8
0-6戸当り
6
CONTINUOUS
62
7
100
AcDbLine
10
1133.663000000000
20
2354.647000000000
30
0.0
11
1133.663000000000
21
2448.647000000000
31
0.0
0
LINE
5
827
100
AcDbEntity
8
0-6戸当り
6
CONTINUOUS
62
7
100
AcDbLine
10
1123.663000000000
20
2354.647000000000
30
0.0
11
1123.663000000000
21
2438.479000000000
31
0.0
0
LINE
5
828
100
AcDbEntity
8
0-9扉体
6
CONTINUOUS
62
7
100
AcDbLine
10
1261.164000000000
20
1435.188000000000
30
0.0
11
1261.164000000000
21
1485.188000000000
31
0.0
0
LINE
5
829
100
AcDbEntity
8
0-9扉体
6
CONTINUOUS
62
7
100
AcDbLine
10
1326.164000000000
20
1485.188000000000
30
0.0
11
1326.164000000000
21
1435.188000000000
31
0.0
0
LINE
5
82a
100
AcDbEntity
8
F-F_J_ADD
6
HIDDEN
62
7
100
AcDbLine
10
1261.164000000000
20
1435.188000000000
30
0.0
11
1326.164000000000
21
1435.188000000000
31
0.0
0
LINE
5
82b
100
AcDbEntity
8
0-5基準線
6
CENTER2
62
7
100
AcDbLine
10
1243.212000000000
20
1467.688000000000
30
0.0
11
1344.115000000000
21
1467.688000000000
31
0.0
0
LINE
5
82c
100
AcDbEntity
8
0-9扉体
6
CONTINUOUS
62
4
100
AcDbLine
10
1326.164000000000
20
1440.188000000000
30
0.0
11
1458.664000000000
21
1440.188000000000
31
0.0
0
CIRCLE
5
82d
100
AcDbEntity
8
0-6戸当り
6
CONTINUOUS
62
6
100
AcDbCircle
10
978.663000000000
20
1515.188000000000
30
0.0
40
6.000000000000
0
CIRCLE
5
82e
100
AcDbEntity
8
0-6戸当り
6
CONTINUOUS
62
6
100
AcDbCircle
10
978.663000000000
20
1515.188000000000
30
0.0
40
5.000000000000
0
ARC
5
82f
100
AcDbEntity
8
0-9扉体
6
CONTINUOUS
62
3
100
AcDbCircle
10
1683.663000000000
20
2332.647000000000
30
0.0
40
10.000000000000
100
AcDbArc
50
270.000000000000
51
540.000000000000
0
CIRCLE
5
830
100
AcDbEntity
8
0-9扉体
6
CONTINUOUS
62
3
100
AcDbCircle
10
1683.663000000000
20
2332.647000000000
30
0.0
40
4.000000000000
0
ARC
5
831
100
AcDbEntity
8
0-9扉体
6
CONTINUOUS
62
7
100
AcDbCircle
10
1653.663000000000
20
2320.966000000000
30
0.0
40
12.419000000000
100
AcDbArc
50
252.412000000000
51
287.588000000000
0
ARC
5
832
100
AcDbEntity
8
0-9扉体
6
CONTINUOUS
62
7
100
AcDbCircle
10
1648.034000000000
20
2311.870000000000
30
0.0
40
3.323000000000
100
AcDbArc
50
244.386000000000
51
304.385000000000
0
ARC
5
833
100
AcDbEntity
8
0-9扉体
6
CONTINUOUS
62
7
100
AcDbCircle
10
1659.292000000000
20
2311.870000000000
30
0.0
40
3.323000000000
100
AcDbArc
50
235.615000000000
51
295.614000000000
0
ARC
5
834
100
AcDbEntity
8
0-6戸当り
6
CONTINUOUS
62
7
100
AcDbCircle
10
2581.736000000000
20
605.188000000000
30
0.0
40
16.241000000000
100
AcDbArc
50
162.412000000000
51
197.588000000000
0
ARC
5
835
100
AcDbEntity
8
0-6戸当り
6
CONTINUOUS
62
7
100
AcDbCircle
10
2569.840000000000
20
612.548000000000
30
0.0
40
4.345000000000
100
AcDbArc
50
154.383000000000
51
214.383000000000
0
ARC
5
836
100
AcDbEntity
8
0-6戸当り
6
CONTINUOUS
62
7
100
AcDbCircle
10
2569.840000000000
20
597.826000000000
30
0.0
40
4.345000000000
100
AcDbArc
50
145.616000000000
51
205.616000000000
0
ARC
5
837
100
AcDbEntity
8
0-6戸当り
6
CONTINUOUS
62
2
100
AcDbCircle
10
2580.173000000000
20
605.188000000000
30
0.0
40
20.000000000000
100
AcDbArc
50
165.522000000000
51
194.478000000000
0
CIRCLE
5
838
100
AcDbEntity
8
0-6戸当り
6
CONTINUOUS
62
3
100
AcDbCircle
10
1723.663000000000
20
605.187000000000
30
0.0
40
11.000000000000
0
CIRCLE
5
839
100
AcDbEntity
8
0-6戸当り
6
CONTINUOUS
62
3
100
AcDbCircle
10
1723.663000000000
20
605.187000000000
30
0.0
40
5.000000000000
0
CIRCLE
5
83a
100
AcDbEntity
8
0-6戸当り
6
CONTINUOUS
62
3
100
AcDbCircle
10
1723.663000000000
20
605.187000000000
30
0.0
40
4.000000000000
0
CIRCLE
5
83b
100
AcDbEntity
8
0-6戸当り
6
CONTINUOUS
62
3
100
AcDbCircle
10
1723.663000000000
20
605.187000000000
30
0.0
40
8.487000000000
0
CIRCLE
5
83c
100
AcDbEntity
8
0-6戸当り
6
CONTINUOUS
62
3
100
AcDbCircle
10
863.663000000000
20
605.187000000000
30
0.0
40
11.000000000000
0
CIRCLE
5
83d
100
AcDbEntity
8
0-6戸当り
6
CONTINUOUS
62
3
100
AcDbCircle
10
863.663000000000
20
605.187000000000
30
0.0
40
5.000000000000
0
CIRCLE
5
83e
100
AcDbEntity
8
0-6戸当り
6
CONTINUOUS
62
3
100
AcDbCircle
10
863.663000000000
20
605.187000000000
30
0.0
40
4.000000000000
0
CIRCLE
5
83f
100
AcDbEntity
8
0-6戸当り
6
CONTINUOUS
62
3
100
AcDbCircle
10
863.663000000000
20
605.187000000000
30
0.0
40
8.487000000000
0
CIRCLE
5
840
100
AcDbEntity
8
0-6戸当り
6
CONTINUOUS
62
6
100
AcDbCircle
10
978.663000000000
20
1515.188000000000
30
0.0
40
13.000000000000
0
CIRCLE
5
841
100
AcDbEntity
8
0-6戸当り
6
CONTINUOUS
62
7
100
AcDbCircle
10
1128.663000000000
20
1515.188000000000
30
0.0
40
9.500000000000
0
CIRCLE
5
842
100
AcDbEntity
8
0-6戸当り
6
CONTINUOUS
62
6
100
AcDbCircle
10
1128.663000000000
20
1515.188000000000
30
0.0
40
6.000000000000
0
CIRCLE
5
843
100
AcDbEntity
8
0-6戸当り
6
CONTINUOUS
62
6
100
AcDbCircle
10
1128.663000000000
20
1515.188000000000
30
0.0
40
5.000000000000
0
CIRCLE
5
844
100
AcDbEntity
8
0-6戸当り
6
CONTINUOUS
62
6
100
AcDbCircle
10
1128.663000000000
20
1515.188000000000
30
0.0
40
13.000000000000
0
CIRCLE
5
845
100
AcDbEntity
8
0-6戸当り
6
CONTINUOUS
62
7
100
AcDbCircle
10
1608.663000000000
20
1515.188000000000
30
0.0
40
9.500000000000
0
CIRCLE
5
846
100
AcDbEntity
8
0-6戸当り
6
CONTINUOUS
62
6
100
AcDbCircle
10
1608.663000000000
20
1515.188000000000
30
0.0
40
6.000000000000
0
CIRCLE
5
847
100
AcDbEntity
8
0-6戸当り
6
CONTINUOUS
62
6
100
AcDbCircle
10
1608.663000000000
20
1515.188000000000
30
0.0
40
5.000000000000
0
CIRCLE
5
848
100
AcDbEntity
8
0-6戸当り
6
CONTINUOUS
62
6
100
AcDbCircle
10
1608.663000000000
20
1515.188000000000
30
0.0
40
13.000000000000
0
CIRCLE
5
849
100
AcDbEntity
8
0-6戸当り
6
CONTINUOUS
62
7
100
AcDbCircle
10
1458.663000000000
20
1515.188000000000
30
0.0
40
9.500000000000
0
CIRCLE
5
84a
100
AcDbEntity
8
0-6戸当り
6
CONTINUOUS
62
6
100
AcDbCircle
10
1458.663000000000
20
1515.188000000000
30
0.0
40
6.000000000000
0
CIRCLE
5
84b
100
AcDbEntity
8
0-6戸当り
6
CONTINUOUS
62
6
100
AcDbCircle
10
1458.663000000000
20
1515.188000000000
30
0.0
40
5.000000000000
0
CIRCLE
5
84c
100
AcDbEntity
8
0-6戸当り
6
CONTINUOUS
62
6
100
AcDbCircle
10
1458.663000000000
20
1515.188000000000
30
0.0
40
13.000000000000
0
ARC
5
84d
100
AcDbEntity
8
0-9扉体
6
CONTINUOUS
62
3
100
AcDbCircle
10
903.663000000000
20
2332.647000000000
30
0.0
40
10.000000000000
100
AcDbArc
50
90.000000000000
51
270.000000000000
0
ARC
5
84e
100
AcDbEntity
8
0-6戸当り
6
CONTINUOUS
62
7
100
AcDbCircle
10
1723.663000000000
20
2349.288000000000
30
0.0
40
16.241000000000
100
AcDbArc
50
252.412000000000
51
287.588000000000
0
ARC
5
84f
100
AcDbEntity
8
0-6戸当り
6
CONTINUOUS
62
7
100
AcDbCircle
10
1716.302000000000
20
2337.392000000000
30
0.0
40
4.345000000000
100
AcDbArc
50
244.383000000000
51
304.383000000000
0
ARC
5
850
100
AcDbEntity
8
0-6戸当り
6
CONTINUOUS
62
7
100
AcDbCircle
10
1731.024000000000
20
2337.392000000000
30
0.0
40
4.345000000000
100
AcDbArc
50
235.616000000000
51
295.616000000000
0
ARC
5
851
100
AcDbEntity
8
0-6戸当り
6
CONTINUOUS
62
2
100
AcDbCircle
10
1723.663000000000
20
2347.726000000000
30
0.0
40
20.000000000000
100
AcDbArc
50
255.522000000000
51
284.478000000000
0
ARC
5
852
100
AcDbEntity
8
0-6戸当り
6
CONTINUOUS
62
7
100
AcDbCircle
10
863.663000000000
20
2349.288000000000
30
0.0
40
16.241000000000
100
AcDbArc
50
252.412000000000
51
287.588000000000
0
ARC
5
853
100
AcDbEntity
8
0-6戸当り
6
CONTINUOUS
62
7
100
AcDbCircle
10
871.024000000000
20
2337.392000000000
30
0.0
40
4.345000000000
100
AcDbArc
50
235.617000000000
51
295.617000000000
0
ARC
5
854
100
AcDbEntity
8
0-6戸当り
6
CONTINUOUS
62
7
100
AcDbCircle
10
856.302000000000
20
2337.392000000000
30
0.0
40
4.345000000000
100
AcDbArc
50
244.384000000000
51
304.384000000000
0
ARC
5
855
100
AcDbEntity
8
0-6戸当り
6
CONTINUOUS
62
2
100
AcDbCircle
10
863.663000000000
20
2347.726000000000
30
0.0
40
20.000000000000
100
AcDbArc
50
255.522000000000
51
284.478000000000
0
CIRCLE
5
856
100
AcDbEntity
8
0-6戸当り
6
CONTINUOUS
62
3
100
AcDbCircle
10
1078.663000000000
20
605.187000000000
30
0.0
40
11.000000000000
0
CIRCLE
5
857
100
AcDbEntity
8
0-6戸当り
6
CONTINUOUS
62
3
100
AcDbCircle
10
1078.663000000000
20
605.187000000000
30
0.0
40
5.000000000000
0
CIRCLE
5
858
100
AcDbEntity
8
0-6戸当り
6
CONTINUOUS
62
3
100
AcDbCircle
10
1078.663000000000
20
605.187000000000
30
0.0
40
4.000000000000
0
CIRCLE
5
859
100
AcDbEntity
8
0-6戸当り
6
CONTINUOUS
62
3
100
AcDbCircle
10
1078.663000000000
20
605.187000000000
30
0.0
40
8.487000000000
0
CIRCLE
5
85a
100
AcDbEntity
8
0-6戸当り
6
CONTINUOUS
62
3
100
AcDbCircle
10
1293.663000000000
20
605.187000000000
30
0.0
40
11.000000000000
0
CIRCLE
5
85b
100
AcDbEntity
8
0-6戸当り
6
CONTINUOUS
62
3
100
AcDbCircle
10
1293.663000000000
20
605.187000000000
30
0.0
40
5.000000000000
0
CIRCLE
5
85c
100
AcDbEntity
8
0-6戸当り
6
CONTINUOUS
62
3
100
AcDbCircle
10
1293.663000000000
20
605.187000000000
30
0.0
40
4.000000000000
0
CIRCLE
5
85d
100
AcDbEntity
8
0-6戸当り
6
CONTINUOUS
62
3
100
AcDbCircle
10
1293.663000000000
20
605.187000000000
30
0.0
40
8.487000000000
0
CIRCLE
5
85e
100
AcDbEntity
8
0-6戸当り
6
CONTINUOUS
62
3
100
AcDbCircle
10
1508.663000000000
20
605.187000000000
30
0.0
40
11.000000000000
0
CIRCLE
5
85f
100
AcDbEntity
8
0-6戸当り
6
CONTINUOUS
62
3
100
AcDbCircle
10
1508.663000000000
20
605.187000000000
30
0.0
40
5.000000000000
0
CIRCLE
5
860
100
AcDbEntity
8
0-6戸当り
6
CONTINUOUS
62
3
100
AcDbCircle
10
1508.663000000000
20
605.187000000000
30
0.0
40
4.000000000000
0
CIRCLE
5
861
100
AcDbEntity
8
0-6戸当り
6
CONTINUOUS
62
3
100
AcDbCircle
10
1508.663000000000
20
605.187000000000
30
0.0
40
8.487000000000
0
ARC
5
862
100
AcDbEntity
8
0-9扉体
6
CONTINUOUS
62
6
100
AcDbCircle
10
1681.663000000000
20
2271.147000000000
30
0.0
40
6.000000000000
100
AcDbArc
50
270.000000000000
51
360.000000000000
0
ARC
5
863
100
AcDbEntity
8
0-9扉体
6
CONTINUOUS
62
6
100
AcDbCircle
10
1631.663000000000
20
2262.147000000000
30
0.0
40
3.000000000000
100
AcDbArc
50
90.000000000000
51
180.000000000000
0
CIRCLE
5
864
100
AcDbEntity
8
0-6戸当り
6
CONTINUOUS
62
3
100
AcDbCircle
10
863.663000000000
20
820.187000000000
30
0.0
40
11.000000000000
0
CIRCLE
5
865
100
AcDbEntity
8
0-6戸当り
6
CONTINUOUS
62
3
100
AcDbCircle
10
863.663000000000
20
820.187000000000
30
0.0
40
5.000000000000
0
CIRCLE
5
866
100
AcDbEntity
8
0-6戸当り
6
CONTINUOUS
62
3
100
AcDbCircle
10
863.663000000000
20
820.187000000000
30
0.0
40
4.000000000000
0
CIRCLE
5
867
100
AcDbEntity
8
0-6戸当り
6
CONTINUOUS
62
3
100
AcDbCircle
10
863.663000000000
20
820.187000000000
30
0.0
40
8.487000000000
0
CIRCLE
5
868
100
AcDbEntity
8
0-6戸当り
6
CONTINUOUS
62
3
100
AcDbCircle
10
863.663000000000
20
1035.187000000000
30
0.0
40
11.000000000000
0
CIRCLE
5
869
100
AcDbEntity
8
0-6戸当り
6
CONTINUOUS
62
3
100
AcDbCircle
10
863.663000000000
20
1035.187000000000
30
0.0
40
5.000000000000
0
CIRCLE
5
86a
100
AcDbEntity
8
0-6戸当り
6
CONTINUOUS
62
3
100
AcDbCircle
10
863.663000000000
20
1035.187000000000
30
0.0
40
4.000000000000
0
CIRCLE
5
86b
100
AcDbEntity
8
0-6戸当り
6
CONTINUOUS
62
3
100
AcDbCircle
10
863.663000000000
20
1035.187000000000
30
0.0
40
8.487000000000
0
CIRCLE
5
86c
100
AcDbEntity
8
0-6戸当り
6
CONTINUOUS
62
3
100
AcDbCircle
10
863.663000000000
20
1250.187000000000
30
0.0
40
11.000000000000
0
CIRCLE
5
86d
100
AcDbEntity
8
0-6戸当り
6
CONTINUOUS
62
3
100
AcDbCircle
10
863.663000000000
20
1250.187000000000
30
0.0
40
5.000000000000
0
CIRCLE
5
86e
100
AcDbEntity
8
0-6戸当り
6
CONTINUOUS
62
3
100
AcDbCircle
10
863.663000000000
20
1250.187000000000
30
0.0
40
4.000000000000
0
CIRCLE
5
86f
100
AcDbEntity
8
0-6戸当り
6
CONTINUOUS
62
3
100
AcDbCircle
10
863.663000000000
20
1250.187000000000
30
0.0
40
8.487000000000
0
CIRCLE
5
870
100
AcDbEntity
8
0-6戸当り
6
CONTINUOUS
62
3
100
AcDbCircle
10
863.663000000000
20
1465.187000000000
30
0.0
40
11.000000000000
0
CIRCLE
5
871
100
AcDbEntity
8
0-6戸当り
6
CONTINUOUS
62
3
100
AcDbCircle
10
863.663000000000
20
1465.187000000000
30
0.0
40
5.000000000000
0
CIRCLE
5
872
100
AcDbEntity
8
0-6戸当り
6
CONTINUOUS
62
3
100
AcDbCircle
10
863.663000000000
20
1465.187000000000
30
0.0
40
4.000000000000
0
CIRCLE
5
873
100
AcDbEntity
8
0-6戸当り
6
CONTINUOUS
62
3
100
AcDbCircle
10
863.663000000000
20
1465.187000000000
30
0.0
40
8.487000000000
0
CIRCLE
5
874
100
AcDbEntity
8
0-6戸当り
6
CONTINUOUS
62
3
100
AcDbCircle
10
1723.663000000000
20
820.187000000000
30
0.0
40
11.000000000000
0
CIRCLE
5
875
100
AcDbEntity
8
0-6戸当り
6
CONTINUOUS
62
3
100
AcDbCircle
10
1723.663000000000
20
820.187000000000
30
0.0
40
5.000000000000
0
CIRCLE
5
876
100
AcDbEntity
8
0-6戸当り
6
CONTINUOUS
62
3
100
AcDbCircle
10
1723.663000000000
20
820.187000000000
30
0.0
40
4.000000000000
0
CIRCLE
5
877
100
AcDbEntity
8
0-6戸当り
6
CONTINUOUS
62
3
100
AcDbCircle
10
1723.663000000000
20
820.187000000000
30
0.0
40
8.487000000000
0
CIRCLE
5
878
100
AcDbEntity
8
0-6戸当り
6
CONTINUOUS
62
3
100
AcDbCircle
10
1723.663000000000
20
1035.187000000000
30
0.0
40
11.000000000000
0
CIRCLE
5
879
100
AcDbEntity
8
0-6戸当り
6
CONTINUOUS
62
3
100
AcDbCircle
10
1723.663000000000
20
1035.187000000000
30
0.0
40
5.000000000000
0
CIRCLE
5
87a
100
AcDbEntity
8
0-6戸当り
6
CONTINUOUS
62
3
100
AcDbCircle
10
1723.663000000000
20
1035.187000000000
30
0.0
40
4.000000000000
0
CIRCLE
5
87b
100
AcDbEntity
8
0-6戸当り
6
CONTINUOUS
62
3
100
AcDbCircle
10
1723.663000000000
20
1035.187000000000
30
0.0
40
8.487000000000
0
CIRCLE
5
87c
100
AcDbEntity
8
0-6戸当り
6
CONTINUOUS
62
3
100
AcDbCircle
10
1723.663000000000
20
1250.187000000000
30
0.0
40
11.000000000000
0
CIRCLE
5
87d
100
AcDbEntity
8
0-6戸当り
6
CONTINUOUS
62
3
100
AcDbCircle
10
1723.663000000000
20
1250.187000000000
30
0.0
40
5.000000000000
0
CIRCLE
5
87e
100
AcDbEntity
8
0-6戸当り
6
CONTINUOUS
62
3
100
AcDbCircle
10
1723.663000000000
20
1250.187000000000
30
0.0
40
4.000000000000
0
CIRCLE
5
87f
100
AcDbEntity
8
0-6戸当り
6
CONTINUOUS
62
3
100
AcDbCircle
10
1723.663000000000
20
1250.187000000000
30
0.0
40
8.487000000000
0
CIRCLE
5
880
100
AcDbEntity
8
0-6戸当り
6
CONTINUOUS
62
3
100
AcDbCircle
10
1723.663000000000
20
1465.187000000000
30
0.0
40
11.000000000000
0
CIRCLE
5
881
100
AcDbEntity
8
0-6戸当り
6
CONTINUOUS
62
3
100
AcDbCircle
10
1723.663000000000
20
1465.187000000000
30
0.0
40
5.000000000000
0
CIRCLE
5
882
100
AcDbEntity
8
0-6戸当り
6
CONTINUOUS
62
3
100
AcDbCircle
10
1723.663000000000
20
1465.187000000000
30
0.0
40
4.000000000000
0
CIRCLE
5
883
100
AcDbEntity
8
0-6戸当り
6
CONTINUOUS
62
3
100
AcDbCircle
10
1723.663000000000
20
1465.187000000000
30
0.0
40
8.487000000000
0
CIRCLE
5
884
100
AcDbEntity
8
0-6戸当り
6
CONTINUOUS
62
3
100
AcDbCircle
10
963.663000000000
20
1465.187000000000
30
0.0
40
11.000000000000
0
CIRCLE
5
885
100
AcDbEntity
8
0-6戸当り
6
CONTINUOUS
62
3
100
AcDbCircle
10
963.663000000000
20
1465.187000000000
30
0.0
40
5.000000000000
0
CIRCLE
5
886
100
AcDbEntity
8
0-6戸当り
6
CONTINUOUS
62
3
100
AcDbCircle
10
963.663000000000
20
1465.187000000000
30
0.0
40
4.000000000000
0
CIRCLE
5
887
100
AcDbEntity
8
0-6戸当り
6
CONTINUOUS
62
3
100
AcDbCircle
10
963.663000000000
20
1465.187000000000
30
0.0
40
8.487000000000
0
CIRCLE
5
888
100
AcDbEntity
8
0-6戸当り
6
CONTINUOUS
62
3
100
AcDbCircle
10
1183.663000000000
20
1465.187000000000
30
0.0
40
11.000000000000
0
CIRCLE
5
889
100
AcDbEntity
8
0-6戸当り
6
CONTINUOUS
62
3
100
AcDbCircle
10
1183.663000000000
20
1465.187000000000
30
0.0
40
5.000000000000
0
CIRCLE
5
88a
100
AcDbEntity
8
0-6戸当り
6
CONTINUOUS
62
3
100
AcDbCircle
10
1183.663000000000
20
1465.187000000000
30
0.0
40
4.000000000000
0
CIRCLE
5
88b
100
AcDbEntity
8
0-6戸当り
6
CONTINUOUS
62
3
100
AcDbCircle
10
1183.663000000000
20
1465.187000000000
30
0.0
40
8.487000000000
0
CIRCLE
5
88c
100
AcDbEntity
8
0-6戸当り
6
CONTINUOUS
62
3
100
AcDbCircle
10
1403.663000000000
20
1465.187000000000
30
0.0
40
11.000000000000
0
CIRCLE
5
88d
100
AcDbEntity
8
0-6戸当り
6
CONTINUOUS
62
3
100
AcDbCircle
10
1403.663000000000
20
1465.187000000000
30
0.0
40
5.000000000000
0
CIRCLE
5
88e
100
AcDbEntity
8
0-6戸当り
6
CONTINUOUS
62
3
100
AcDbCircle
10
1403.663000000000
20
1465.187000000000
30
0.0
40
4.000000000000
0
CIRCLE
5
88f
100
AcDbEntity
8
0-6戸当り
6
CONTINUOUS
62
3
100
AcDbCircle
10
1403.663000000000
20
1465.187000000000
30
0.0
40
8.487000000000
0
CIRCLE
5
890
100
AcDbEntity
8
0-6戸当り
6
CONTINUOUS
62
3
100
AcDbCircle
10
1623.663000000000
20
1465.187000000000
30
0.0
40
11.000000000000
0
CIRCLE
5
891
100
AcDbEntity
8
0-6戸当り
6
CONTINUOUS
62
3
100
AcDbCircle
10
1623.663000000000
20
1465.187000000000
30
0.0
40
5.000000000000
0
CIRCLE
5
892
100
AcDbEntity
8
0-6戸当り
6
CONTINUOUS
62
3
100
AcDbCircle
10
1623.663000000000
20
1465.187000000000
30
0.0
40
4.000000000000
0
CIRCLE
5
893
100
AcDbEntity
8
0-6戸当り
6
CONTINUOUS
62
3
100
AcDbCircle
10
1623.663000000000
20
1465.187000000000
30
0.0
40
8.487000000000
0
ARC
5
894
100
AcDbEntity
8
0-9扉体
6
CONTINUOUS
62
3
100
AcDbCircle
10
2565.095000000000
20
1425.188000000000
30
0.0
40
10.000000000000
100
AcDbArc
50
270.000000000000
51
540.000000000000
0
CIRCLE
5
895
100
AcDbEntity
8
0-9扉体
6
CONTINUOUS
62
3
100
AcDbCircle
10
2565.095000000000
20
1425.188000000000
30
0.0
40
4.000000000000
0
ARC
5
896
100
AcDbEntity
8
0-9扉体
6
CONTINUOUS
62
7
100
AcDbCircle
10
2553.414000000000
20
1395.188000000000
30
0.0
40
12.419000000000
100
AcDbArc
50
162.412000000000
51
197.588000000000
0
ARC
5
897
100
AcDbEntity
8
0-9扉体
6
CONTINUOUS
62
7
100
AcDbCircle
10
2544.317000000000
20
1389.559000000000
30
0.0
40
3.323000000000
100
AcDbArc
50
145.615000000000
51
205.614000000000
0
ARC
5
898
100
AcDbEntity
8
0-9扉体
6
CONTINUOUS
62
7
100
AcDbCircle
10
2544.317000000000
20
1400.817000000000
30
0.0
40
3.323000000000
100
AcDbArc
50
154.386000000000
51
214.385000000000
0
ARC
5
899
100
AcDbEntity
8
0-9扉体
6
CONTINUOUS
62
3
100
AcDbCircle
10
2565.095000000000
20
645.188000000000
30
0.0
40
10.000000000000
100
AcDbArc
50
180.000000000000
51
450.000000000000
0
CIRCLE
5
89a
100
AcDbEntity
8
0-9扉体
6
CONTINUOUS
62
3
100
AcDbCircle
10
2565.095000000000
20
645.188000000000
30
0.0
40
4.000000000000
0
ARC
5
89b
100
AcDbEntity
8
0-9扉体
6
CONTINUOUS
62
7
100
AcDbCircle
10
2553.414000000000
20
675.188000000000
30
0.0
40
12.419000000000
100
AcDbArc
50
162.412000000000
51
197.588000000000
0
ARC
5
89c
100
AcDbEntity
8
0-9扉体
6
CONTINUOUS
62
7
100
AcDbCircle
10
2544.317000000000
20
680.817000000000
30
0.0
40
3.323000000000
100
AcDbArc
50
154.386000000000
51
214.385000000000
0
ARC
5
89d
100
AcDbEntity
8
0-9扉体
6
CONTINUOUS
62
7
100
AcDbCircle
10
2544.317000000000
20
669.559000000000
30
0.0
40
3.323000000000
100
AcDbArc
50
145.615000000000
51
205.614000000000
0
CIRCLE
5
89e
100
AcDbEntity
8
0-9扉体
6
CONTINUOUS
62
4
100
AcDbCircle
10
2533.595000000000
20
1485.188000000000
30
0.0
40
8.000000000000
0
CIRCLE
5
89f
100
AcDbEntity
8
0-9扉体
6
CONTINUOUS
62
4
100
AcDbCircle
10
2533.595000000000
20
1485.188000000000
30
0.0
40
16.000000000000
0
ARC
5
8a0
100
AcDbEntity
8
0-9扉体
6
CONTINUOUS
62
6
100
AcDbCircle
10
2499.094000000000
20
1420.188000000000
30
0.0
40
6.000000000000
100
AcDbArc
50
90.000000000000
51
180.000000000000
0
ARC
5
8a1
100
AcDbEntity
8
0-9扉体
6
CONTINUOUS
62
6
100
AcDbCircle
10
2499.094000000000
20
1005.188000000000
30
0.0
40
6.000000000000
100
AcDbArc
50
90.000000000000
51
180.000000000000
0
ARC
5
8a2
100
AcDbEntity
8
0-9扉体
6
CONTINUOUS
62
6
100
AcDbCircle
10
2499.094000000000
20
650.188000000000
30
0.0
40
6.000000000000
100
AcDbArc
50
180.000000000000
51
270.000000000000
0
ARC
5
8a3
100
AcDbEntity
8
0-9扉体
6
CONTINUOUS
62
6
100
AcDbCircle
10
2490.094000000000
20
697.188000000000
30
0.0
40
3.000000000000
100
AcDbArc
50
0.000000000000
51
90.000000000000
0
ARC
5
8a4
100
AcDbEntity
8
0-9扉体
6
CONTINUOUS
62
6
100
AcDbCircle
10
2490.094000000000
20
958.188000000000
30
0.0
40
3.000000000000
100
AcDbArc
50
270.000000000000
51
360.000000000000
0
ARC
5
8a5
100
AcDbEntity
8
0-9扉体
6
CONTINUOUS
62
6
100
AcDbCircle
10
2490.094000000000
20
1373.188000000000
30
0.0
40
3.000000000000
100
AcDbArc
50
270.000000000000
51
360.000000000000
0
CIRCLE
5
8a6
100
AcDbEntity
8
0-9扉体
6
CONTINUOUS
62
7
100
AcDbCircle
10
1293.664000000000
20
1467.688000000000
30
0.0
40
15.000000000000
0
POLYLINE
5
8a7
100
AcDbEntity
  8
0-8寸法
6
CONTINUOUS
62
4
100
AcDb2dPolyline
66
1
10
0
20
0
70
1
40
4.000
41
4.000
0
VERTEX
5
8a8
100
AcDbEntity
  8
0-8寸法
6
CONTINUOUS
62
4
100
AcDbVertex
100
AcDb2dVertex
10
2580.931
20
622.291
30
0.0
42
1.000
0
VERTEX
5
8a9
100
AcDbEntity
  8
0-8寸法
6
CONTINUOUS
62
4
100
AcDbVertex
100
AcDb2dVertex
10
2584.931
20
622.291
30
0.0
42
1.000
0
SEQEND
5
8aa
100
AcDbEntity
  8
0-8寸法
0
POLYLINE
5
8ab
100
AcDbEntity
  8
0-8寸法
6
CONTINUOUS
62
4
100
AcDb2dPolyline
66
1
10
0
20
0
70
1
40
4.000
41
4.000
0
VERTEX
5
8ac
100
AcDbEntity
  8
0-8寸法
6
CONTINUOUS
62
4
100
AcDbVertex
100
AcDb2dVertex
10
1028.445
20
1523.356
30
0.0
42
1.000
0
VERTEX
5
8ad
100
AcDbEntity
  8
0-8寸法
6
CONTINUOUS
62
4
100
AcDbVertex
100
AcDb2dVertex
10
1032.445
20
1523.356
30
0.0
42
1.000
0
SEQEND
5
8ae
100
AcDbEntity
  8
0-8寸法
0
POLYLINE
5
8af
100
AcDbEntity
  8
0-8寸法
6
CONTINUOUS
62
4
100
AcDb2dPolyline
66
1
10
0
20
0
70
1
40
4.000
41
4.000
0
VERTEX
5
8b0
100
AcDbEntity
  8
0-8寸法
6
CONTINUOUS
62
4
100
AcDbVertex
100
AcDb2dVertex
10
1562.325
20
1503.957
30
0.0
42
1.000
0
VERTEX
5
8b1
100
AcDbEntity
  8
0-8寸法
6
CONTINUOUS
62
4
100
AcDbVertex
100
AcDb2dVertex
10
1566.325
20
1503.957
30
0.0
42
1.000
0
SEQEND
5
8b2
100
AcDbEntity
  8
0-8寸法
0
POLYLINE
5
8b3
100
AcDbEntity
  8
0-8寸法
6
CONTINUOUS
62
4
100
AcDb2dPolyline
66
1
10
0
20
0
70
1
40
4.000
41
4.000
0
VERTEX
5
8b4
100
AcDbEntity
  8
0-8寸法
6
CONTINUOUS
62
4
100
AcDbVertex
100
AcDb2dVertex
10
2547.095
20
1185.187
30
0.0
42
1.000
0
VERTEX
5
8b5
100
AcDbEntity
  8
0-8寸法
6
CONTINUOUS
62
4
100
AcDbVertex
100
AcDb2dVertex
10
2551.095
20
1185.187
30
0.0
42
1.000
0
SEQEND
5
8b6
100
AcDbEntity
  8
0-8寸法
0
POLYLINE
5
8b7
100
AcDbEntity
  8
0-8寸法
6
CONTINUOUS
62
4
100
AcDb2dPolyline
66
1
10
0
20
0
70
1
40
4.000
41
4.000
0
VERTEX
5
8b8
100
AcDbEntity
  8
0-8寸法
6
CONTINUOUS
62
4
100
AcDbVertex
100
AcDb2dVertex
10
2399.095
20
1435.187
30
0.0
42
1.000
0
VERTEX
5
8b9
100
AcDbEntity
  8
0-8寸法
6
CONTINUOUS
62
4
100
AcDbVertex
100
AcDb2dVertex
10
2403.095
20
1435.187
30
0.0
42
1.000
0
SEQEND
5
8ba
100
AcDbEntity
  8
0-8寸法
0
POLYLINE
5
8bb
100
AcDbEntity
  8
0-8寸法
6
CONTINUOUS
62
4
100
AcDb2dPolyline
66
1
10
0
20
0
70
1
40
4.000
41
4.000
0
VERTEX
5
8bc
100
AcDbEntity
  8
0-8寸法
6
CONTINUOUS
62
4
100
AcDbVertex
100
AcDb2dVertex
10
2531.595
20
1485.187
30
0.0
42
1.000
0
VERTEX
5
8bd
100
AcDbEntity
  8
0-8寸法
6
CONTINUOUS
62
4
100
AcDbVertex
100
AcDb2dVertex
10
2535.595
20
1485.187
30
0.0
42
1.000
0
SEQEND
5
8be
100
AcDbEntity
  8
0-8寸法
0
TEXT
5
8bf
100
AcDbEntity
8
0-8寸法
62
7
370
-3
100
AcDbText
10
1775.263
20
349.235
30
0.0
40
33.660
1
20
41
0.597
50
0.000
100
AcDbText
0
TEXT
5
8c0
100
AcDbEntity
8
0-8寸法
62
7
370
-3
100
AcDbText
10
775.263
20
349.235
30
0.0
40
33.660
1
20
41
0.597
50
0.000
100
AcDbText
0
TEXT
5
8c1
100
AcDbEntity
8
0-8寸法
62
7
370
-3
100
AcDbText
10
579.615
20
516.787
30
0.0
40
33.660
1
20
41
0.597
50
90.000
100
AcDbText
0
TEXT
5
8c2
100
AcDbEntity
8
0-8寸法
62
7
370
-3
100
AcDbText
10
2873.047
20
605.537
30
0.0
40
33.660
1
100
41
0.775
50
90.000
100
AcDbText
0
TEXT
5
8c3
100
AcDbEntity
8
0-8寸法
62
7
370
-3
100
AcDbText
10
2873.047
20
1430.537
30
0.0
40
33.660
1
150
41
0.710
50
90.000
100
AcDbText
0
TEXT
5
8c4
100
AcDbEntity
8
0-8寸法
62
7
370
-3
100
AcDbText
10
864.013
20
2668.695
30
0.0
40
33.660
1
100
41
0.775
50
0.000
100
AcDbText
0
TEXT
5
8c5
100
AcDbEntity
8
0-8寸法
62
7
370
-3
100
AcDbText
10
1664.013
20
2668.695
30
0.0
40
33.660
1
100
41
0.775
50
0.000
100
AcDbText
0
MTEXT
5
8c6
100
AcDbEntity
8
0-8寸法
62
7
370
-3
100
AcDbMText
10
1185.264
20
445.495
30
0.0
40
31.790
41
0.000
71
7
72
1
1
\W1.093;扉体幅{\W0.787; 800}
7
STANDARD
11
1.00000
21
0.00000
31
0.0
0
MTEXT
5
8c7
100
AcDbEntity
8
0-8寸法
62
7
370
-3
100
AcDbMText
10
1185.263
20
245.495
30
0.0
40
31.790
41
0.000
71
7
72
1
1
\W1.093;戸当幅{\W0.787; 900}
7
STANDARD
11
1.00000
21
0.00000
31
0.0
0
MTEXT
5
8c8
100
AcDbEntity
8
0-8寸法
62
7
370
-3
100
AcDbMText
10
683.355
20
926.787
30
0.0
40
31.790
41
0.000
71
7
72
1
1
\W1.093;扉体高{\W0.787; 800}
7
STANDARD
11
0.00000
21
1.00000
31
0.0
0
MTEXT
5
8c9
100
AcDbEntity
8
0-8寸法
62
7
370
-3
100
AcDbMText
10
483.355
20
951.787
30
0.0
40
31.790
41
0.000
71
7
72
1
1
\W1.093;戸当高{\W0.787; 950}
7
STANDARD
11
0.00000
21
1.00000
31
0.0
0
MTEXT
5
8ca
100
AcDbEntity
8
0-8寸法
62
7
370
-3
100
AcDbMText
10
1185.264
20
2664.955
30
0.0
40
31.790
41
0.000
71
7
72
1
1
\W1.093;有効幅{\W0.787; 700}
7
STANDARD
11
1.00000
21
0.00000
31
0.0
0
MTEXT
5
8cb
100
AcDbEntity
8
0-8寸法
62
7
370
-3
100
AcDbMText
10
1185.264
20
2070.495
30
0.0
40
31.790
41
0.000
71
7
72
1
1
\W1.093;扉体幅{\W0.787; 800}
7
STANDARD
11
1.00000
21
0.00000
31
0.0
0
TEXT
5
8cc
100
AcDbEntity
8
0-8寸法
62
7
370
-3
100
AcDbText
10
1264.013
20
1774.235
30
0.0
40
33.660
1
480
41
0.619
50
0.000
100
AcDbText
0
TEXT
5
8cd
100
AcDbEntity
8
0-8寸法
62
7
370
-3
100
AcDbText
10
2618.292
20
1099.235
30
0.0
40
33.660
1
20
41
0.597
50
0.000
100
AcDbText
0
TEXT
5
8ce
100
AcDbEntity
8
0-8寸法
62
7
370
-3
100
AcDbText
10
1024.013
20
1674.235
30
0.0
40
33.660
1
150
41
0.710
50
0.000
100
AcDbText
0
TEXT
5
8cf
100
AcDbEntity
8
0-8寸法
62
7
370
-3
100
AcDbText
10
1504.013
20
1674.235
30
0.0
40
33.660
1
150
41
0.710
50
0.000
100
AcDbText
0
TEXT
5
8d0
100
AcDbEntity
8
0-8寸法
62
7
370
-3
100
AcDbText
10
579.615
20
1481.787
30
0.0
40
33.660
1
70
41
0.654
50
90.000
100
AcDbText
0
TEXT
5
8d1
100
AcDbEntity
8
0-8寸法
62
7
370
-3
100
AcDbText
10
1185.263
20
349.235
30
0.0
40
33.660
1
4x215P=860
41
0.606
50
0.000
100
AcDbText
0
TEXT
5
8d2
100
AcDbEntity
8
0-8寸法
62
7
370
-3
100
AcDbText
10
579.615
20
926.787
30
0.0
40
33.660
1
4x215P=860
41
0.606
50
90.000
100
AcDbText
0
TEXT
5
8d3
100
AcDbEntity
8
0-8寸法
62
7
370
-3
100
AcDbText
10
1185.263
20
1874.235
30
0.0
40
33.660
1
3x220P=660
41
0.585
50
0.000
100
AcDbText
0
MTEXT
5
8d4
100
AcDbEntity
8
0-8寸法
62
7
370
-3
100
AcDbMText
10
2876.787
20
926.787
30
0.0
40
31.790
41
0.000
71
7
72
1
1
\W1.093;有効高{\W0.787; 700}
7
STANDARD
11
0.00000
21
1.00000
31
0.0
0
TEXT
5
8d5
100
AcDbEntity
8
0-A文字
62
7
370
-3
100
AcDbText
10
1381.239
20
898.132
30
0.0
40
33.660
1
ｽｷﾝﾌﾟﾚ-ﾄ
41
0.893
50
0.000
100
AcDbText
0
TEXT
5
8d6
100
AcDbEntity
8
0-A文字
62
7
370
-3
100
AcDbText
10
1381.239
20
838.132
30
0.0
40
33.660
1
PL-6t
41
0.577
50
0.000
100
AcDbText
0
TEXT
5
8d7
100
AcDbEntity
8
0-A文字
62
7
370
-3
100
AcDbText
10
1100.955
20
1029.235
30
0.0
40
33.660
1
L65x65x6 (SUS304)
41
0.625
50
0.000
100
AcDbText
0
TEXT
5
8d8
100
AcDbEntity
8
0-A文字
62
7
370
-3
100
AcDbText
10
1100.955
20
709.235
30
0.0
40
33.660
1
L65x65x6 (SUS304)
41
0.625
50
0.000
100
AcDbText
0
TEXT
5
8d9
100
AcDbEntity
8
0-A文字
62
7
370
-3
100
AcDbText
10
1009.616
20
1121.878
30
0.0
40
33.660
1
L65x65x6
41
0.569
50
90.000
100
AcDbText
0
TEXT
5
8da
100
AcDbEntity
8
0-A文字
62
7
370
-3
100
AcDbText
10
1571.103
20
1119.445
30
0.0
40
33.660
1
L65x65x6
41
0.569
50
90.000
100
AcDbText
0
TEXT
5
8db
100
AcDbEntity
8
0-A文字
62
7
370
-3
100
AcDbText
10
1059.616
20
1133.128
30
0.0
40
33.660
1
(SUS304)
41
0.659
50
90.000
100
AcDbText
0
TEXT
5
8dc
100
AcDbEntity
8
0-A文字
62
7
370
-3
100
AcDbText
10
1621.103
20
1130.695
30
0.0
40
33.660
1
(SUS304)
41
0.659
50
90.000
100
AcDbText
0
TEXT
5
8dd
100
AcDbEntity
8
0-A文字
62
7
370
-3
100
AcDbText
10
1381.239
20
788.132
30
0.0
40
33.660
1
(SUS304)
41
0.659
50
0.000
100
AcDbText
0
TEXT
5
8de
100
AcDbEntity
8
0-A文字
62
7
370
-3
100
AcDbText
10
2167.892
20
1072.118
30
0.0
40
33.660
1
水圧方向
41
0.963
50
0.000
100
AcDbText
0
MTEXT
5
8df
100
AcDbEntity
8
0-8寸法
62
7
370
-3
100
AcDbMText
10
2159.826
20
1545.495
30
0.0
40
31.790
41
0.000
71
7
72
1
1
\W1.093;▽{\W0.787;H.W.L.}
7
STANDARD
11
1.00000
21
0.00000
31
0.0
0
TEXT
5
8e0
100
AcDbEntity
8
0-8寸法
62
7
370
-3
100
AcDbText
10
2387.047
20
1511.787
30
0.0
40
33.660
1
50
41
0.626
50
90.000
100
AcDbText
0
TEXT
5
8e1
100
AcDbEntity
8
0-8寸法
62
7
370
-3
100
AcDbText
10
2387.047
20
1321.787
30
0.0
40
33.660
1
50
41
0.626
50
90.000
100
AcDbText
0
MTEXT
5
8e2
100
AcDbEntity
8
0-8寸法
62
7
370
-3
100
AcDbMText
10
2061.787
20
950.537
30
0.0
40
31.790
41
0.000
71
7
72
1
1
\W1.093;設計水深{\W0.787; 2.40 m}
7
STANDARD
11
0.00000
21
1.00000
31
0.0
0
TEXT
5
8e3
100
AcDbEntity
8
0-8寸法
62
7
370
-3
100
AcDbText
10
2392.195
20
1199.235
30
0.0
40
33.660
1
65
41
0.566
50
0.000
100
AcDbText
0
TEXT
5
8e4
100
AcDbEntity
8
0-8寸法
62
7
370
-3
100
AcDbText
10
2602.832
20
1198.120
30
0.0
40
33.660
1
6t
41
0.574
50
0.000
100
AcDbText
0
LINE
5
8e5
100
AcDbEntity
8
0-9扉体
6
CONTINUOUS
62
4
100
AcDbLine
10
2543.595000000000
20
1509.188000000000
30
0.0
11
2508.595000000000
21
1509.188000000000
31
0.0
0
LINE
5
8e6
100
AcDbEntity
8
0-9扉体
6
CONTINUOUS
62
4
100
AcDbLine
10
2558.595000000000
20
1494.188000000000
30
0.0
11
2558.595000000000
21
1461.188000000000
31
0.0
0
LINE
5
8e7
100
AcDbEntity
8
0-8寸法
6
CONTINUOUS
62
4
100
AcDbLine
10
2452.095000000000
20
435.188000000000
30
0.0
11
2582.931000000000
21
622.292000000000
31
0.0
0
LINE
5
8e8
100
AcDbEntity
8
0-8寸法
6
CONTINUOUS
62
4
100
AcDbLine
10
2452.095000000000
20
235.188000000000
30
0.0
11
2587.095000000000
21
585.188000000000
31
0.0
0
LINE
5
8e9
100
AcDbEntity
8
0-8寸法
6
CONTINUOUS
62
4
100
AcDbLine
10
1751.679000000000
20
1660.188000000000
30
0.0
11
1564.325000000000
21
1503.958000000000
31
0.0
0
LINE
5
8ea
100
AcDbEntity
8
0-8寸法
6
CONTINUOUS
62
4
100
AcDbLine
10
893.663000000000
20
1660.188000000000
30
0.0
11
1030.444000000000
21
1523.357000000000
31
0.0
0
LINE
5
8eb
100
AcDbEntity
8
0-9扉体
6
CONTINUOUS
62
4
100
AcDbLine
10
2508.595000000000
20
1509.188000000000
30
0.0
11
2491.595000000000
21
1444.188000000000
31
0.0
0
LINE
5
8ec
100
AcDbEntity
8
0-8寸法
6
CONTINUOUS
62
4
100
AcDbLine
10
1855.732077667430
20
335.188000000000
30
0.0
11
2452.095000000000
21
335.188000000000
31
0.0
0
LINE
5
8ed
100
AcDbEntity
8
0-8寸法
6
CONTINUOUS
62
4
100
AcDbLine
10
1855.732077667430
20
435.188000000000
30
0.0
11
2452.095000000000
21
435.188000000000
31
0.0
0
TEXT
5
8ee
100
AcDbEntity
8
0-A文字
62
7
370
-3
100
AcDbText
10
1100.955
20
1325.374
30
0.0
40
33.660
1
L65x65x6 (SUS304)
41
0.625
50
0.000
100
AcDbText
0
TEXT
5
8ef
100
AcDbEntity
8
0-8寸法
62
7
370
-3
100
AcDbText
10
2466.417
20
1749.235
30
0.0
40
33.660
1
41
41
0.752
50
0.000
100
AcDbText
0
LINE
5
8f0
100
AcDbEntity
8
0-8寸法
6
CONTINUOUS
62
4
100
AcDbLine
10
261.381000000000
20
1760.188000000000
30
0.0
11
893.663000000000
21
1760.188000000000
31
0.0
0
LINE
5
8f1
100
AcDbEntity
8
0-8寸法
6
CONTINUOUS
62
4
100
AcDbLine
10
261.381000000000
20
1860.188000000000
30
0.0
11
893.663000000000
21
1860.188000000000
31
0.0
0
LINE
5
8f2
100
AcDbEntity
8
0-8寸法
6
CONTINUOUS
62
4
100
AcDbLine
10
1751.679000000000
20
2160.188000000000
30
0.0
11
2436.141000000000
21
2160.188000000000
31
0.0
0
LINE
5
8f3
100
AcDbEntity
8
0-8寸法
6
CONTINUOUS
62
4
100
AcDbLine
10
1751.679000000000
20
2060.188000000000
30
0.0
11
2436.141000000000
21
2060.188000000000
31
0.0
0
LINE
5
8f4
100
AcDbEntity
8
0-8寸法
6
CONTINUOUS
62
4
100
AcDbLine
10
1751.679000000000
20
1960.188000000000
30
0.0
11
2436.141000000000
21
1960.188000000000
31
0.0
0
LINE
5
8f5
100
AcDbEntity
8
0-8寸法
6
CONTINUOUS
62
4
100
AcDbLine
10
261.381000000000
20
1660.188000000000
30
0.0
11
893.663000000000
21
1660.188000000000
31
0.0
0
LINE
5
8f6
100
AcDbEntity
8
0-8寸法
6
CONTINUOUS
62
4
100
AcDbLine
10
1751.679000000000
20
1660.188000000000
30
0.0
11
2338.947000000000
21
1660.188000000000
31
0.0
0
MTEXT
5
8f7
100
AcDbEntity
8
0-8寸法
62
7
370
-3
100
AcDbMText
10
1768.819
20
2070.495
30
0.0
40
31.790
41
0.000
71
7
72
1
1
\W1.093;ゴム押え{\W0.787; PL-6t(SUS304)}　
7
STANDARD
11
1.00000
21
0.00000
31
0.0
0
MTEXT
5
8f8
100
AcDbEntity
8
0-8寸法
62
7
370
-3
100
AcDbMText
10
1768.369
20
1973.615
30
0.0
40
31.790
41
0.000
71
7
72
1
1
\W1.093;皿{\W0.787;BT&NT  M8(SUS304}相当{\W0.787;)}
7
STANDARD
11
1.00000
21
0.00000
31
0.0
0
MTEXT
5
8f9
100
AcDbEntity
8
0-8寸法
62
7
370
-3
100
AcDbMText
10
281.511
20
1870.495
30
0.0
40
31.790
41
0.000
71
7
72
1
1
\W1.093;吊り{\W0.787;ﾌﾞﾗｹｯﾄ PL-10t(SUS304)}
7
STANDARD
11
1.00000
21
0.00000
31
0.0
0
MTEXT
5
8fa
100
AcDbEntity
8
0-8寸法
62
7
370
-3
100
AcDbMText
10
281.493
20
1770.495
30
0.0
40
31.790
41
0.000
71
7
72
1
1
\W1.093;{\W0.787; }　　　　　{\W0.787;PL-12t(SUS304)}
7
STANDARD
11
1.00000
21
0.00000
31
0.0
0
MTEXT
5
8fb
100
AcDbEntity
8
0-8寸法
62
7
370
-3
100
AcDbMText
10
281.493
20
1670.495
30
0.0
40
31.790
41
0.000
71
7
72
1
1
\W1.093;接着系{\W0.787;ｱﾝｶｰ M12(SUS304}相当{\W0.787;)}
7
STANDARD
11
1.00000
21
0.00000
31
0.0
0
MTEXT
5
8fc
100
AcDbEntity
8
0-8寸法
62
7
370
-3
100
AcDbMText
10
1780.069
20
1671.556
30
0.0
40
31.790
41
0.000
71
7
72
1
1
\W1.093;吊り金具{\W0.787; PL-9t(SUS304) }
7
STANDARD
11
1.00000
21
0.00000
31
0.0
0
MTEXT
5
8fd
100
AcDbEntity
8
0-8寸法
62
7
370
-3
100
AcDbMText
10
1771.774
20
2170.495
30
0.0
40
31.790
41
0.000
71
7
72
1
1
\W1.093;水密ゴム{\W0.787; }Ｐ型φ{\W0.787;20x60x8(CRｺﾞﾑ)}
7
STANDARD
11
1.00000
21
0.00000
31
0.0
0
LINE
5
8fe
100
AcDbEntity
8
0-8寸法
6
CONTINUOUS
62
4
100
AcDbLine
10
1751.679000000000
20
2160.188000000000
30
0.0
11
1751.679000000000
21
1960.188000000000
31
0.0
0
LINE
5
8ff
100
AcDbEntity
8
0-8寸法
6
CONTINUOUS
62
4
100
AcDbLine
10
893.663000000000
20
1860.188000000000
30
0.0
11
893.663000000000
21
1660.188000000000
31
0.0
0
MTEXT
5
900
100
AcDbEntity
8
0-8寸法
62
7
370
-3
100
AcDbMText
10
1925.877
20
445.495
30
0.0
40
31.790
41
0.000
71
7
72
1
1
\W1.093;戸当り{\W0.787;  PL-12t (SUS304)}
7
STANDARD
11
1.00000
21
0.00000
31
0.0
0
MTEXT
5
901
100
AcDbEntity
8
0-8寸法
62
7
370
-3
100
AcDbMText
10
1861.610
20
345.495
30
0.0
40
31.790
41
0.000
71
7
72
1
1
\W1.093;金属系{\W0.787;ｱﾝｶｰ M10(SUS304}相当{\W0.787;)}
7
STANDARD
11
1.00000
21
0.00000
31
0.0
0
TEXT
5
902
100
AcDbEntity
8
0-8寸法
62
7
370
-3
100
AcDbText
10
1925.895
20
249.235
30
0.0
40
33.660
1
シ－リング剤充填とする。
41
0.963
50
0.000
100
AcDbText
0
LINE
5
903
100
AcDbEntity
8
0-9扉体
6
CONTINUOUS
62
7
100
AcDbLine
10
1311.164000000000
20
1500.188000000000
30
0.0
11
1276.164000000000
21
1500.188000000000
31
0.0
0
LINE
5
904
100
AcDbEntity
8
0-9扉体
6
CONTINUOUS
62
7
100
AcDbLine
10
1261.164000000000
20
1485.188000000000
30
0.0
11
1276.164000000000
21
1500.188000000000
31
0.0
0
LINE
5
905
100
AcDbEntity
8
0-9扉体
6
CONTINUOUS
62
7
100
AcDbLine
10
1326.164000000000
20
1485.188000000000
30
0.0
11
1311.164000000000
21
1500.188000000000
31
0.0
0
TEXT
5
906
100
AcDbEntity
8
0-7図枠
62
7
370
-3
100
AcDbText
10
3035.686
20
2101.407
30
0.0
40
33.660
41
0.856
50
0.000
1
扉体寸法
72
1
11
3114.086
21
2115.267
31
0.0
100
AcDbText
73
2
0
LINE
5
907
100
AcDbEntity
8
0-7図枠
6
CONTINUOUS
62
4
100
AcDbLine
10
3024.086000000000
20
2280.267000000000
30
0.0
11
3834.084000000000
21
2280.267000000000
31
0.0
0
LINE
5
908
100
AcDbEntity
8
0-7図枠
6
CONTINUOUS
62
4
100
AcDbLine
10
3024.086000000000
20
2205.266000000000
30
0.0
11
3834.084000000000
21
2205.266000000000
31
0.0
0
LINE
5
909
100
AcDbEntity
8
0-7図枠
6
CONTINUOUS
62
4
100
AcDbLine
10
3024.086000000000
20
2145.267000000000
30
0.0
11
3834.084000000000
21
2145.267000000000
31
0.0
0
LINE
5
90a
100
AcDbEntity
8
0-7図枠
6
CONTINUOUS
62
4
100
AcDbLine
10
3024.086000000000
20
2085.267000000000
30
0.0
11
3834.084000000000
21
2085.267000000000
31
0.0
0
LINE
5
90b
100
AcDbEntity
8
0-7図枠
6
CONTINUOUS
62
4
100
AcDbLine
10
3024.086000000000
20
2025.266000000000
30
0.0
11
3834.084000000000
21
2025.266000000000
31
0.0
0
LINE
5
90c
100
AcDbEntity
8
0-7図枠
6
CONTINUOUS
62
4
100
AcDbLine
10
3024.086000000000
20
2280.267000000000
30
0.0
11
3024.086000000000
21
2025.266000000000
31
0.0
0
LINE
5
90d
100
AcDbEntity
8
0-7図枠
6
CONTINUOUS
62
4
100
AcDbLine
10
3834.084000000000
20
2280.267000000000
30
0.0
11
3834.084000000000
21
2025.266000000000
31
0.0
0
LINE
5
90e
100
AcDbEntity
8
0-7図枠
6
CONTINUOUS
62
4
100
AcDbLine
10
3204.085000000000
20
2205.266000000000
30
0.0
11
3204.085000000000
21
2025.266000000000
31
0.0
0
LINE
5
90f
100
AcDbEntity
8
0-7図枠
6
CONTINUOUS
62
4
100
AcDbLine
10
3519.085000000000
20
2205.266000000000
30
0.0
11
3519.085000000000
21
2025.266000000000
31
0.0
0
TEXT
5
910
100
AcDbEntity
8
0-7図枠
62
7
370
-3
100
AcDbText
10
3290.685
20
2228.907
30
0.0
40
33.660
41
0.856
50
0.000
1
設　計　条　件
72
1
11
3429.085
21
2242.767
31
0.0
100
AcDbText
73
2
0
TEXT
5
911
100
AcDbEntity
8
0-7図枠
62
7
370
-3
100
AcDbText
10
3035.686
20
2161.407
30
0.0
40
33.660
1
通水断面
41
0.856
50
0.000
100
AcDbText
0
MTEXT
5
912
100
AcDbEntity
8
0-7図枠
62
7
370
-3
100
AcDbMText
10
3528.184
20
2037.667
30
0.0
40
31.790
41
0.000
71
7
72
1
1
\W0.972;後水深{\W0.700;   0.00 m}
7
STANDARD
11
1.00000
21
0.00000
31
0.0
0
MTEXT
5
913
100
AcDbEntity
8
0-7図枠
62
7
370
-3
100
AcDbMText
10
3213.185
20
2157.667
30
0.0
40
31.790
41
0.000
71
7
72
1
1
\W0.972;有効幅{\W0.700;   0.70 m}
7
STANDARD
11
1.00000
21
0.00000
31
0.0
0
MTEXT
5
914
100
AcDbEntity
8
0-7図枠
62
7
370
-3
100
AcDbMText
10
3213.185
20
2097.667
30
0.0
40
31.790
41
0.000
71
7
72
1
1
\W0.972;扉体高{\W0.700;   0.80 m}
7
STANDARD
11
1.00000
21
0.00000
31
0.0
0
MTEXT
5
915
100
AcDbEntity
8
0-7図枠
62
7
370
-3
100
AcDbMText
10
3213.185
20
2037.667
30
0.0
40
31.790
41
0.000
71
7
72
1
1
\W0.972;前水深{\W0.700;   2.40 m}
7
STANDARD
11
1.00000
21
0.00000
31
0.0
0
MTEXT
5
916
100
AcDbEntity
8
0-7図枠
62
7
370
-3
100
AcDbMText
10
3528.184
20
2157.667
30
0.0
40
31.790
41
0.000
71
7
72
1
1
\W0.972;有効高　{\W0.700; 0.70 m}
7
STANDARD
11
1.00000
21
0.00000
31
0.0
0
MTEXT
5
917
100
AcDbEntity
8
0-7図枠
62
7
370
-3
100
AcDbMText
10
3528.184
20
2097.667
30
0.0
40
31.790
41
0.000
71
7
72
1
1
\W0.972;扉体高{\W0.700;   0.80 m}
7
STANDARD
11
1.00000
21
0.00000
31
0.0
0
TEXT
5
918
100
AcDbEntity
8
0-6戸当り
62
7
370
-3
100
AcDbText
10
3239.102
20
271.140
30
0.0
40
33.660
41
0.803
50
0.000
1
R5.12.1
72
1
11
3316.252
21
287.500
31
0.0
100
AcDbText
73
2
0
LINE
5
919
100
AcDbEntity
8
0-6戸当り
6
CONTINUOUS
62
3
100
AcDbLine
10
2553.995000000000
20
1504.800000000000
30
0.0
11
2562.944000000000
21
1504.800000000000
31
0.0
0
LINE
5
91a
100
AcDbEntity
8
0-6戸当り
6
CONTINUOUS
62
3
100
AcDbLine
10
2553.995000000000
20
1525.575000000000
30
0.0
11
2562.944000000000
21
1525.575000000000
31
0.0
0
LINE
5
91b
100
AcDbEntity
8
0-6戸当り
6
CONTINUOUS
62
3
100
AcDbLine
10
2553.193000000000
20
1524.188000000000
30
0.0
11
2553.193000000000
21
1506.187000000000
31
0.0
0
LINE
5
91c
100
AcDbEntity
8
0-6戸当り
6
CONTINUOUS
62
3
100
AcDbLine
10
2553.995000000000
20
1520.374000000000
30
0.0
11
2562.944000000000
21
1520.374000000000
31
0.0
0
LINE
5
91d
100
AcDbEntity
8
0-6戸当り
6
CONTINUOUS
62
3
100
AcDbLine
10
2553.995000000000
20
1510.001000000000
30
0.0
11
2562.944000000000
21
1510.001000000000
31
0.0
0
LINE
5
91e
100
AcDbEntity
8
0-6戸当り
6
CONTINUOUS
62
3
100
AcDbLine
10
2553.193000000000
20
1524.188000000000
30
0.0
11
2553.653000000000
21
1524.983000000000
31
0.0
0
LINE
5
91f
100
AcDbEntity
8
0-6戸当り
6
CONTINUOUS
62
3
100
AcDbLine
10
2553.193000000000
20
1506.187000000000
30
0.0
11
2553.653000000000
21
1505.392000000000
31
0.0
0
LINE
5
920
100
AcDbEntity
8
0-6戸当り
6
CONTINUOUS
62
3
100
AcDbLine
10
2545.344000000000
20
1521.187000000000
30
0.0
11
2545.344000000000
21
1509.187000000000
31
0.0
0
LINE
5
921
100
AcDbEntity
8
0-6戸当り
6
CONTINUOUS
62
3
100
AcDbLine
10
2545.344000000000
20
1521.187000000000
30
0.0
11
2553.193000000000
21
1521.187000000000
31
0.0
0
LINE
5
922
100
AcDbEntity
8
0-6戸当り
6
CONTINUOUS
62
3
100
AcDbLine
10
2545.344000000000
20
1518.938000000000
30
0.0
11
2553.193000000000
21
1518.938000000000
31
0.0
0
LINE
5
923
100
AcDbEntity
8
0-6戸当り
6
CONTINUOUS
62
3
100
AcDbLine
10
2545.344000000000
20
1511.438000000000
30
0.0
11
2553.193000000000
21
1511.438000000000
31
0.0
0
LINE
5
924
100
AcDbEntity
8
0-6戸当り
6
CONTINUOUS
62
3
100
AcDbLine
10
2545.344000000000
20
1509.187000000000
30
0.0
11
2553.193000000000
21
1509.187000000000
31
0.0
0
LINE
5
925
100
AcDbEntity
8
0-6戸当り
6
CONTINUOUS
62
7
100
AcDbLine
10
2553.193000000000
20
1510.187000000000
30
0.0
11
2553.200000000000
21
1510.187000000000
31
0.0
0
LINE
5
926
100
AcDbEntity
8
0-6戸当り
6
CONTINUOUS
62
7
100
AcDbLine
10
2553.193000000000
20
1520.187000000000
30
0.0
11
2553.200000000000
21
1520.187000000000
31
0.0
0
ARC
5
927
100
AcDbEntity
8
0-6戸当り
6
CONTINUOUS
62
3
100
AcDbCircle
10
2557.815000000000
20
1522.975000000000
30
0.0
40
4.621000000000
100
AcDbArc
50
145.757000000000
51
214.243000000000
0
ARC
5
928
100
AcDbEntity
8
0-6戸当り
6
CONTINUOUS
62
3
100
AcDbCircle
10
2570.383000000000
20
1515.188000000000
30
0.0
40
17.190000000000
100
AcDbArc
50
162.440000000000
51
197.560000000000
0
ARC
5
929
100
AcDbEntity
8
0-6戸当り
6
CONTINUOUS
62
3
100
AcDbCircle
10
2557.815000000000
20
1507.400000000000
30
0.0
40
4.621000000000
100
AcDbArc
50
145.757000000000
51
214.243000000000
0
ARC
5
92a
100
AcDbEntity
8
0-6戸当り
6
CONTINUOUS
62
2
100
AcDbCircle
10
2564.423000000000
20
1515.188000000000
30
0.0
40
20.000000000000
100
AcDbArc
50
162.543000000000
51
197.457000000000
0
LINE
5
92b
100
AcDbEntity
8
0-6戸当り
6
CONTINUOUS
62
3
100
AcDbLine
10
2563.746000000000
20
1504.800000000000
30
0.0
11
2572.695000000000
21
1504.800000000000
31
0.0
0
LINE
5
92c
100
AcDbEntity
8
0-6戸当り
6
CONTINUOUS
62
3
100
AcDbLine
10
2563.746000000000
20
1525.575000000000
30
0.0
11
2572.695000000000
21
1525.575000000000
31
0.0
0
LINE
5
92d
100
AcDbEntity
8
0-6戸当り
6
CONTINUOUS
62
3
100
AcDbLine
10
2563.746000000000
20
1520.374000000000
30
0.0
11
2572.695000000000
21
1520.374000000000
31
0.0
0
LINE
5
92e
100
AcDbEntity
8
0-6戸当り
6
CONTINUOUS
62
3
100
AcDbLine
10
2563.746000000000
20
1510.001000000000
30
0.0
11
2572.695000000000
21
1510.001000000000
31
0.0
0
LINE
5
92f
100
AcDbEntity
8
0-6戸当り
6
CONTINUOUS
62
3
100
AcDbLine
10
2562.944000000000
20
1524.188000000000
30
0.0
11
2563.404000000000
21
1524.983000000000
31
0.0
0
LINE
5
930
100
AcDbEntity
8
0-6戸当り
6
CONTINUOUS
62
3
100
AcDbLine
10
2562.944000000000
20
1506.187000000000
30
0.0
11
2563.404000000000
21
1505.392000000000
31
0.0
0
LINE
5
931
100
AcDbEntity
8
0-6戸当り
6
CONTINUOUS
62
7
100
AcDbLine
10
2562.944000000000
20
1510.187000000000
30
0.0
11
2562.951000000000
21
1510.187000000000
31
0.0
0
LINE
5
932
100
AcDbEntity
8
0-6戸当り
6
CONTINUOUS
62
7
100
AcDbLine
10
2562.944000000000
20
1520.187000000000
30
0.0
11
2562.951000000000
21
1520.187000000000
31
0.0
0
ARC
5
933
100
AcDbEntity
8
0-6戸当り
6
CONTINUOUS
62
3
100
AcDbCircle
10
2567.566000000000
20
1522.975000000000
30
0.0
40
4.621000000000
100
AcDbArc
50
145.757000000000
51
214.243000000000
0
ARC
5
934
100
AcDbEntity
8
0-6戸当り
6
CONTINUOUS
62
3
100
AcDbCircle
10
2580.134000000000
20
1515.188000000000
30
0.0
40
17.190000000000
100
AcDbArc
50
162.440000000000
51
197.560000000000
0
ARC
5
935
100
AcDbEntity
8
0-6戸当り
6
CONTINUOUS
62
3
100
AcDbCircle
10
2567.566000000000
20
1507.400000000000
30
0.0
40
4.621000000000
100
AcDbArc
50
145.757000000000
51
214.243000000000
0
LINE
5
936
100
AcDbEntity
8
0-6戸当り
6
CONTINUOUS
62
3
100
AcDbLine
10
2562.944000000000
20
1524.188000000000
30
0.0
11
2562.944000000000
21
1506.187000000000
31
0.0
0
LINE
5
937
100
AcDbEntity
8
0-7図枠
6
CONTINUOUS
62
3
100
AcDbLine
10
2562.944000000000
20
1504.800000000000
30
0.0
11
2562.944000000000
21
1525.575000000000
31
0.0
0
LINE
5
938
100
AcDbEntity
8
0-6戸当り
6
CONTINUOUS
62
6
100
AcDbLine
10
2551.886561975889
20
1506.688000000000
30
0.0
11
2553.193000000000
21
1506.688000000000
31
0.0
0
LINE
5
939
100
AcDbEntity
8
0-6戸当り
6
CONTINUOUS
62
6
100
AcDbLine
10
2558.385199457749
20
1496.688000000000
30
0.0
11
2575.095000000000
21
1496.688000000000
31
0.0
0
LINE
5
93a
100
AcDbEntity
8
0-6戸当り
6
CONTINUOUS
62
6
100
AcDbLine
10
2558.595000000000
20
1473.688000000000
30
0.0
11
2575.095000000000
21
1473.688000000000
31
0.0
0
ARC
5
93b
100
AcDbEntity
8
0-6戸当り
6
CONTINUOUS
62
6
100
AcDbCircle
10
2515.943000000000
20
1485.188000000000
30
0.0
40
21.500000000000
100
AcDbArc
50
113.156919891689
51
217.529577876790
0
LINE
5
93c
100
AcDbEntity
8
0-6戸当り
6
CONTINUOUS
62
6
100
AcDbLine
10
2558.595000000000
20
1463.688000000000
30
0.0
11
2575.095000000000
21
1463.688000000000
31
0.0
0
ARC
5
93d
100
AcDbEntity
8
0-9扉体
6
CONTINUOUS
62
4
100
AcDbCircle
10
2543.595000000000
20
1494.188000000000
30
0.0
40
15.000000000000
100
AcDbArc
50
0.000000000000
51
45.029168395122
0
ARC
5
93e
100
AcDbEntity
8
0-9扉体
6
CONTINUOUS
62
4
100
AcDbCircle
10
2543.595000000000
20
1494.188000000000
30
0.0
40
15.000000000000
100
AcDbArc
50
47.527282705654
51
90.000000000000
0
ARC
5
93f
100
AcDbEntity
8
0-9扉体
6
DASHED
62
4
100
AcDbCircle
10
2543.595000000000
20
1494.188000000000
30
0.0
40
15.000000000000
100
AcDbArc
50
45.029168395122
51
47.527282705654
0
LINE
5
940
100
AcDbEntity
8
0-6戸当り
6
CONTINUOUS
62
7
100
AcDbLine
10
969.163000000000
20
2320.247000000000
30
0.0
11
969.163000000000
21
2330.247000000000
31
0.0
0
LINE
5
941
100
AcDbEntity
8
0-6戸当り
6
CONTINUOUS
62
7
100
AcDbLine
10
988.163000000000
20
2320.247000000000
30
0.0
11
988.163000000000
21
2330.247000000000
31
0.0
0
LINE
5
942
100
AcDbEntity
8
0-6戸当り
6
CONTINUOUS
62
7
100
AcDbLine
10
988.163000000000
20
2320.247000000000
30
0.0
11
969.163000000000
21
2320.247000000000
31
0.0
0
LINE
5
943
100
AcDbEntity
8
0-6戸当り
6
CONTINUOUS
62
3
100
AcDbLine
10
984.663000000000
20
2312.647000000000
30
0.0
11
972.663000000000
21
2312.647000000000
31
0.0
0
LINE
5
944
100
AcDbEntity
8
0-6戸当り
6
CONTINUOUS
62
3
100
AcDbLine
10
982.413000000000
20
2312.647000000000
30
0.0
11
982.413000000000
21
2320.247000000000
31
0.0
0
LINE
5
945
100
AcDbEntity
8
0-6戸当り
6
CONTINUOUS
62
3
100
AcDbLine
10
984.663000000000
20
2312.647000000000
30
0.0
11
984.663000000000
21
2320.247000000000
31
0.0
0
LINE
5
946
100
AcDbEntity
8
0-6戸当り
6
CONTINUOUS
62
3
100
AcDbLine
10
974.913000000000
20
2312.647000000000
30
0.0
11
974.913000000000
21
2320.247000000000
31
0.0
0
LINE
5
947
100
AcDbEntity
8
0-6戸当り
6
CONTINUOUS
62
3
100
AcDbLine
10
972.663000000000
20
2312.647000000000
30
0.0
11
972.663000000000
21
2320.247000000000
31
0.0
0
LINE
5
948
100
AcDbEntity
8
0-6戸当り
6
CONTINUOUS
62
7
100
AcDbLine
10
978.663000000000
20
2321.096000000000
30
0.0
11
978.663000000000
21
2330.247000000000
31
0.0
0
LINE
5
949
100
AcDbEntity
8
0-5基準線
6
CENTER2
62
7
100
AcDbLine
10
978.663000000000
20
2309.701000000000
30
0.0
11
978.663000000000
21
2320.247000000000
31
0.0
0
ARC
5
94a
100
AcDbEntity
8
0-6戸当り
6
CONTINUOUS
62
7
100
AcDbCircle
10
973.913000000000
20
2333.967000000000
30
0.0
40
13.720000000000
100
AcDbArc
50
249.744000000000
51
290.256000000000
0
ARC
5
94b
100
AcDbEntity
8
0-6戸当り
6
CONTINUOUS
62
7
100
AcDbCircle
10
983.413000000000
20
2333.967000000000
30
0.0
40
13.720000000000
100
AcDbArc
50
249.744000000000
51
290.256000000000
0
ARC
5
94c
100
AcDbEntity
8
0-6戸当り
6
CONTINUOUS
62
2
100
AcDbCircle
10
978.663000000000
20
2331.726000000000
30
0.0
40
20.000000000000
100
AcDbArc
50
252.543000000000
51
287.457000000000
0
LINE
5
94d
100
AcDbEntity
8
0-6戸当り
6
CONTINUOUS
62
7
100
AcDbLine
10
969.163000000000
20
2330.247000000000
30
0.0
11
969.163000000000
21
2340.247000000000
31
0.0
0
LINE
5
94e
100
AcDbEntity
8
0-6戸当り
6
CONTINUOUS
62
7
100
AcDbLine
10
988.163000000000
20
2330.247000000000
30
0.0
11
988.163000000000
21
2340.247000000000
31
0.0
0
LINE
5
94f
100
AcDbEntity
8
0-6戸当り
6
CONTINUOUS
62
7
100
AcDbLine
10
988.163000000000
20
2330.247000000000
30
0.0
11
969.163000000000
21
2330.247000000000
31
0.0
0
LINE
5
950
100
AcDbEntity
8
0-6戸当り
6
CONTINUOUS
62
7
100
AcDbLine
10
978.663000000000
20
2331.096000000000
30
0.0
11
978.663000000000
21
2340.247000000000
31
0.0
0
ARC
5
951
100
AcDbEntity
8
0-6戸当り
6
CONTINUOUS
62
7
100
AcDbCircle
10
973.913000000000
20
2343.967000000000
30
0.0
40
13.720000000000
100
AcDbArc
50
249.744000000000
51
290.256000000000
0
ARC
5
952
100
AcDbEntity
8
0-6戸当り
6
CONTINUOUS
62
7
100
AcDbCircle
10
983.413000000000
20
2343.967000000000
30
0.0
40
13.720000000000
100
AcDbArc
50
249.744000000000
51
290.256000000000
0
LINE
5
953
100
AcDbEntity
8
0-9扉体
6
CONTINUOUS
62
4
100
AcDbLine
10
888.663000000000
20
2322.647000000000
30
0.0
11
969.163000000000
21
2322.647000000000
31
0.0
0
LINE
5
954
100
AcDbEntity
8
0-9扉体
6
CONTINUOUS
62
4
100
AcDbLine
10
988.163000000000
20
2322.647000000000
30
0.0
11
1013.740000000000
21
2322.647000000000
31
0.0
0
LINE
5
955
100
AcDbEntity
8
0-9扉体
6
CONTINUOUS
62
6
100
AcDbLine
10
988.163000000000
20
2325.029000000000
30
0.0
11
1005.781000000000
21
2342.647000000000
31
0.0
0
LINE
5
956
100
AcDbEntity
8
0-9扉体
6
CONTINUOUS
62
6
100
AcDbLine
10
988.163000000000
20
2326.443000000000
30
0.0
11
1004.367000000000
21
2342.647000000000
31
0.0
0
LINE
5
957
100
AcDbEntity
8
0-9扉体
6
CONTINUOUS
62
4
100
AcDbLine
10
984.663000000000
20
2316.647000000000
30
0.0
11
999.075000000000
21
2316.647000000000
31
0.0
0
LINE
5
958
100
AcDbEntity
8
0-9扉体
6
CONTINUOUS
62
4
100
AcDbLine
10
888.663000000000
20
2316.647000000000
30
0.0
11
972.663000000000
21
2316.647000000000
31
0.0
0
LINE
5
959
100
AcDbEntity
8
0-6戸当り
6
CONTINUOUS
62
7
100
AcDbLine
10
1138.163000000000
20
2320.247000000000
30
0.0
11
1138.163000000000
21
2330.247000000000
31
0.0
0
LINE
5
95a
100
AcDbEntity
8
0-6戸当り
6
CONTINUOUS
62
7
100
AcDbLine
10
1119.163000000000
20
2320.247000000000
30
0.0
11
1119.163000000000
21
2330.247000000000
31
0.0
0
LINE
5
95b
100
AcDbEntity
8
0-6戸当り
6
CONTINUOUS
62
7
100
AcDbLine
10
1119.163000000000
20
2320.247000000000
30
0.0
11
1138.163000000000
21
2320.247000000000
31
0.0
0
LINE
5
95c
100
AcDbEntity
8
0-6戸当り
6
CONTINUOUS
62
3
100
AcDbLine
10
1122.663000000000
20
2312.647000000000
30
0.0
11
1134.663000000000
21
2312.647000000000
31
0.0
0
LINE
5
95d
100
AcDbEntity
8
0-6戸当り
6
CONTINUOUS
62
3
100
AcDbLine
10
1124.913000000000
20
2312.647000000000
30
0.0
11
1124.913000000000
21
2320.247000000000
31
0.0
0
LINE
5
95e
100
AcDbEntity
8
0-6戸当り
6
CONTINUOUS
62
3
100
AcDbLine
10
1122.663000000000
20
2312.647000000000
30
0.0
11
1122.663000000000
21
2320.247000000000
31
0.0
0
LINE
5
95f
100
AcDbEntity
8
0-6戸当り
6
CONTINUOUS
62
3
100
AcDbLine
10
1132.413000000000
20
2312.647000000000
30
0.0
11
1132.413000000000
21
2320.247000000000
31
0.0
0
LINE
5
960
100
AcDbEntity
8
0-6戸当り
6
CONTINUOUS
62
7
100
AcDbLine
10
1128.663000000000
20
2321.096000000000
30
0.0
11
1128.663000000000
21
2330.247000000000
31
0.0
0
LINE
5
961
100
AcDbEntity
8
0-5基準線
6
CENTER2
62
7
100
AcDbLine
10
1128.663000000000
20
2309.701000000000
30
0.0
11
1128.663000000000
21
2320.247000000000
31
0.0
0
LINE
5
962
100
AcDbEntity
8
0-6戸当り
6
CONTINUOUS
62
3
100
AcDbLine
10
1134.663000000000
20
2312.647000000000
30
0.0
11
1134.663000000000
21
2320.247000000000
31
0.0
0
ARC
5
963
100
AcDbEntity
8
0-6戸当り
6
CONTINUOUS
62
7
100
AcDbCircle
10
1133.413000000000
20
2333.967000000000
30
0.0
40
13.720000000000
100
AcDbArc
50
249.744000000000
51
290.256000000000
0
ARC
5
964
100
AcDbEntity
8
0-6戸当り
6
CONTINUOUS
62
7
100
AcDbCircle
10
1123.913000000000
20
2333.967000000000
30
0.0
40
13.720000000000
100
AcDbArc
50
249.744000000000
51
290.256000000000
0
ARC
5
965
100
AcDbEntity
8
0-6戸当り
6
CONTINUOUS
62
2
100
AcDbCircle
10
1128.663000000000
20
2331.726000000000
30
0.0
40
20.000000000000
100
AcDbArc
50
252.543000000000
51
287.457000000000
0
LINE
5
966
100
AcDbEntity
8
0-6戸当り
6
CONTINUOUS
62
7
100
AcDbLine
10
1138.163000000000
20
2330.247000000000
30
0.0
11
1138.163000000000
21
2340.247000000000
31
0.0
0
LINE
5
967
100
AcDbEntity
8
0-6戸当り
6
CONTINUOUS
62
7
100
AcDbLine
10
1119.163000000000
20
2330.247000000000
30
0.0
11
1119.163000000000
21
2340.247000000000
31
0.0
0
LINE
5
968
100
AcDbEntity
8
0-6戸当り
6
CONTINUOUS
62
7
100
AcDbLine
10
1119.163000000000
20
2330.247000000000
30
0.0
11
1138.163000000000
21
2330.247000000000
31
0.0
0
LINE
5
969
100
AcDbEntity
8
0-6戸当り
6
CONTINUOUS
62
7
100
AcDbLine
10
1128.663000000000
20
2331.096000000000
30
0.0
11
1128.663000000000
21
2340.247000000000
31
0.0
0
ARC
5
96a
100
AcDbEntity
8
0-6戸当り
6
CONTINUOUS
62
7
100
AcDbCircle
10
1133.413000000000
20
2343.967000000000
30
0.0
40
13.720000000000
100
AcDbArc
50
249.744000000000
51
290.256000000000
0
ARC
5
96b
100
AcDbEntity
8
0-6戸当り
6
CONTINUOUS
62
7
100
AcDbCircle
10
1123.913000000000
20
2343.967000000000
30
0.0
40
13.720000000000
100
AcDbArc
50
249.744000000000
51
290.256000000000
0
LINE
5
96c
100
AcDbEntity
8
0-9扉体
6
CONTINUOUS
62
4
100
AcDbLine
10
1091.263000000000
20
2322.647000000000
30
0.0
11
1119.163000000000
21
2322.647000000000
31
0.0
0
LINE
5
96d
100
AcDbEntity
8
0-9扉体
6
CONTINUOUS
62
4
100
AcDbLine
10
1138.163000000000
20
2322.647000000000
30
0.0
11
1698.663000000000
21
2322.647000000000
31
0.0
0
LINE
5
96e
100
AcDbEntity
8
0-9扉体
6
CONTINUOUS
62
4
100
AcDbLine
10
1105.397000000000
20
2316.647000000000
30
0.0
11
1122.663000000000
21
2316.647000000000
31
0.0
0
LINE
5
96f
100
AcDbEntity
8
0-9扉体
6
CONTINUOUS
62
4
100
AcDbLine
10
1134.663000000000
20
2316.647000000000
30
0.0
11
1698.663000000000
21
2316.647000000000
31
0.0
0
ARC
5
970
100
AcDbEntity
8
0-7図枠
6
DOT
62
6
100
AcDbCircle
10
2515.943000000000
20
1485.188000000000
30
0.0
40
11.500000000000
100
AcDbArc
50
90.000000000000
51
270.000000000000
0
ARC
5
971
100
AcDbEntity
8
0-6戸当り
6
DOT
62
6
100
AcDbCircle
10
2515.943000000000
20
1485.188000000000
30
0.0
40
21.500000000000
100
AcDbArc
50
217.529577876790
51
270.000000000000
0
LINE
5
972
100
AcDbEntity
8
0-6戸当り
6
DOT
62
6
100
AcDbLine
10
2515.943000000000
20
1463.688000000000
30
0.0
11
2558.595000000000
21
1463.688000000000
31
0.0
0
LINE
5
973
100
AcDbEntity
8
0-6戸当り
6
DOT
62
6
100
AcDbLine
10
2515.943000000000
20
1473.688000000000
30
0.0
11
2558.595000000000
21
1473.688000000000
31
0.0
0
LINE
5
974
100
AcDbEntity
8
0-6戸当り
6
DOT
62
6
100
AcDbLine
10
2515.943000000000
20
1496.688000000000
30
0.0
11
2558.385199457749
21
1496.688000000000
31
0.0
0
LINE
5
975
100
AcDbEntity
8
0-6戸当り
6
DOT
62
6
100
AcDbLine
10
2515.943000000000
20
1506.688000000000
30
0.0
11
2551.886561975889
21
1506.688000000000
31
0.0
0
ARC
5
976
100
AcDbEntity
8
0-6戸当り
6
DOT
62
6
100
AcDbCircle
10
2515.943000000000
20
1485.188000000000
30
0.0
40
21.500000000000
100
AcDbArc
50
90.000000000000
51
113.156919891689
0
LINE
5
977
100
AcDbEntity
8
0-6戸当り
6
DOT
62
6
100
AcDbLine
10
2553.193000000000
20
1506.688000000000
30
0.0
11
2575.095000000000
21
1506.688000000000
31
0.0
0
TEXT
5
978
100
AcDbEntity
8
0-8寸法
62
7
370
-3
100
AcDbText
10
2601.445
20
1749.235
30
0.0
40
33.660
1
12t
41
0.640
50
0.000
100
AcDbText
0
POLYLINE
5
979
100
AcDbEntity
8
0-9扉体
6
CONTINUOUS
62
  7
100
AcDb2dPolyline
66
1
10
0.0
20
0.0
30
0.0
70
0
0
VERTEX
5
97a
100
AcDbEntity
8
0-9扉体
6
CONTINUOUS
62
  7
100
AcDbVertex
100
AcDb2dVertex
10
1293.663000000000
20
2306.647000000000
30
0.0
0
VERTEX
5
97b
100
AcDbEntity
8
0-9扉体
6
CONTINUOUS
62
  7
100
AcDbVertex
100
AcDb2dVertex
10
1261.163000000000
20
2306.647000000000
30
0.0
0
VERTEX
5
97c
100
AcDbEntity
8
0-9扉体
6
CONTINUOUS
62
  7
100
AcDbVertex
100
AcDb2dVertex
10
1261.163000000000
20
2290.647000000000
30
0.0
0
VERTEX
5
97d
100
AcDbEntity
8
0-9扉体
6
CONTINUOUS
62
  7
100
AcDbVertex
100
AcDb2dVertex
10
1293.663000000000
20
2290.647000000000
30
0.0
0
SEQEND
5
97e
100
AcDbEntity
8
0-9扉体
0
LINE
5
97f
100
AcDbEntity
8
0-9扉体
6
CONTINUOUS
62
7
100
AcDbLine
10
1276.163000000000
20
2290.647000000000
30
0.0
11
1276.163000000000
21
2306.647000000000
31
0.0
0
TEXT
5
980
100
AcDbEntity
8
0-7図枠
62
7
370
-3
100
AcDbText
10
3992.708
20
172.572
30
0.0
40
29.405
1
3
41
0.516
50
0.000
100
AcDbText
0
TEXT
5
981
100
AcDbEntity
8
0-A文字
62
7
370
-3
100
AcDbText
10
1230.616
20
1144.378
30
0.0
40
33.660
1
PL-9t
41
0.587
50
90.000
100
AcDbText
0
TEXT
5
982
100
AcDbEntity
8
0-A文字
62
7
370
-3
100
AcDbText
10
1280.616
20
1132.233
30
0.0
40
33.660
1
(SUS304)
41
0.659
50
90.000
100
AcDbText
0
ENDSEC
 0
SECTION
  2
OBJECTS
 0
DICTIONARY
  5
C
100
AcDbDictionary
  3
ACAD_GROUP
350
D
  3
ACAD_MLINESTYLE
350
E
 0
DICTIONARY
  5
D
102
{ACAD_REACTORS
102
}
100
AcDbDictionary
 0
DICTIONARY
  5
E
102
{ACAD_REACTORS
102
}
100
AcDbDictionary
  3
STANDARD
350
13
0
MLINESTYLE
  5
13
102
{ACAD_REACTORS
102
}
100
AcDbMlineStyle
  2
STANDARD
 70
    0
3

62
256
51
90.0
52
90.0
71
0
0
ACDBPLACEHOLDER
  5
14
102
{ACAD_REACTORS
102
}
0
ENDSEC
0
EOF
