0
SECTION
2
HEADER
9
$ACADVER
1
AC1015
9
$ACADMAINTVER
 70
6
9
$DWGCODEPAGE
3
ANSI_932
9
$EXTMIN
10
0.000
20
0.000
30
0.0
9
$EXTMAX
10
420.000
20
297.000
30
0.0
9
$LIMMIN
10
0.000
20
0.000
9
$LIMMAX
10
420.000
20
297.000
9
$DIMSCALE
40
1.000000
9
$LTSCALE
40
2.000
9
$PDMODE
70
0
9
$PDSIZE
40
40.0
9
$HANDSEED
5
62007
9
$UNITMODE
70
0
9
$VISRETAIN
70
0
9
$PLINEGEN
70
0
9
$PSLTSCALE
70
1
9
$TREEDEPTH
70
3020
9
$CMLSTYLE
2
STANDARD
9
$CMLJUST
70
0
9
$CMLSCALE
40
1.0
9
$PROXYGRAPHICS
70
1
9
$MEASUREMENT
70
0
9
$CELWEIGHT
370
-1
9
$ENDCAPS
280
0
9
$JOINSTYLE
280
0
9
$LWDISPLAY
290
0
9
$INSUNITS
70
0
9
$HYPERLINKBASE
1

9
$STYLESHEET
1

9
$XEDIT
290
1
9
$CEPSNTYPE
380
0
9
$PSTYLEMODE
290
1
9
$FINGERPRINTGUID
2
{5F082321-0195-11D3-BDFB-0060B0CD5109}
9
$VERSIONGUID
2
{12943756-294D-11D3-98C2-0060B087942D}
9
$EXTNAMES
290
1
9
$PSVPSCALE
40
0.0
9
$OLESTARTUP
290
0
0
ENDSEC
0
SECTION
  2
CLASSES
0
ENDSEC
0
SECTION
2
TABLES
0
TABLE
2
VPORT
5
190
100
AcDbSymbolTable
70
2
0
VPORT
5
191
100
AcDbSymbolTableRecord
100
AcDbViewportTableRecord
2
*ACTIVE
70
0
10
0.0
20
0.0
11
1.0
21
1.0
12
210.000
22
148.500
13
0.0
23
0.0
14
1.0
24
1.0
15
0.0
25
0.0
16
0.0
26
0.0
36
1.0
17
0.0
27
0.0
37
0.0
40
304.348
41
2.0
42
50.0
43
0.0
44
0.0
50
0.0
51
0.0
71
0
72
1000
73
1
74
1
75
0
76
0
77
0
78
0
0
ENDTAB
0
TABLE
2
LTYPE
5
1f4
100
AcDbSymbolTable
70
9
0
LTYPE
5
1f5
100
AcDbSymbolTableRecord
100
AcDbLinetypeTableRecord
2
BYBLOCK
70
 64
3

72
 65
73
  0
40
0.0
0
LTYPE
5
1f6
100
AcDbSymbolTableRecord
100
AcDbLinetypeTableRecord
2
BYLAYER
70
 64
3

72
 65
73
  0
40
0.0
0
LTYPE
5
1f7
100
AcDbSymbolTableRecord
100
AcDbLinetypeTableRecord
2
CONTINUOUS
70
64
3
SolidLine
72
65
73
0
40
0.0
0
LTYPE
5
1f8
100
AcDbSymbolTableRecord
100
AcDbLinetypeTableRecord
2
DOT
70
64
3
--  --  --  --  --  --  --  --     
72
65
73
2
40
3.000
49
1.000
74
0
49
-2.000
74
0
0
LTYPE
5
1f9
100
AcDbSymbolTableRecord
100
AcDbLinetypeTableRecord
2
DASHED
70
64
3
----    ----    ----    ----    
72
65
73
2
40
5.000
49
2.000
74
0
49
-3.000
74
0
0
LTYPE
5
1fa
100
AcDbSymbolTableRecord
100
AcDbLinetypeTableRecord
2
DASHED2
70
64
3
------  ------  ------  ------ 
72
65
73
2
40
10.000
49
4.000
74
0
49
-6.000
74
0
0
LTYPE
5
1fb
100
AcDbSymbolTableRecord
100
AcDbLinetypeTableRecord
2
CENTER
70
64
3
----- - ----- - ----- - ----- - 
72
65
73
4
40
10.000
49
6.000
74
0
49
-3.000
74
0
49
1.000
74
0
49
-3.000
74
0
0
LTYPE
5
1fc
100
AcDbSymbolTableRecord
100
AcDbLinetypeTableRecord
2
CENTER2
70
64
3
----------  --  ----------  -- 
72
65
73
4
40
17.000
49
12.000
74
0
49
-5.000
74
0
49
2.000
74
0
49
-5.000
74
0
0
LTYPE
5
1fd
100
AcDbSymbolTableRecord
100
AcDbLinetypeTableRecord
2
PHANTOM
70
64
3
--- - - --- - - --- - - --- - -
72
65
73
6
40
13.000
49
5.000
74
0
49
-3.000
74
0
49
1.000
74
0
49
-3.000
74
0
49
1.000
74
0
49
-3.000
74
0
0
LTYPE
5
1fe
100
AcDbSymbolTableRecord
100
AcDbLinetypeTableRecord
2
PHANTOM2
70
64
3
--------  -  -  --------  -  -
72
65
73
6
40
20.000
49
6.000
74
0
49
-5.000
74
0
49
2.000
74
0
49
-5.000
74
0
49
2.000
74
0
49
-5.000
74
0
0
LTYPE
5
1ff
100
AcDbSymbolTableRecord
100
AcDbLinetypeTableRecord
2
HIDDEN
70
64
3
-   -   -   -   -   -   -   -   
72
65
73
2
40
3.000
49
0.500
74
0
49
-2.500
74
0
0
ENDTAB
0
TABLE
2
STYLE
5
200
100
AcDbSymbolTable
70
1
0
STYLE
5
201
100
AcDbSymbolTableRecord
100
AcDbTextStyleTableRecord
2
STANDARD
70
0
40
0.0
41
1.0
50
0.0
71
0
42
0.0
3
txt.shx
4
extfont.shx
0
STYLE
5
202
100
AcDbSymbolTableRecord
100
AcDbTextStyleTableRecord
2
TATEGAKI
70
4
40
0.0
41
1.0
50
0.0
71
0
42
0.0
3
txt.shx
4
extfont.shx
0
STYLE
5
203
100
AcDbSymbolTableRecord
100
AcDbTextStyleTableRecord
2
DIM
70
0
40
0.0
41
0.75
50
0.0
71
0
42
0.0
3
txt.shx
4
extfont.shx
0
STYLE
5
204
100
AcDbSymbolTableRecord
100
AcDbTextStyleTableRecord
2
_Gothic_
70
0
40
1.0
41
1.0
50
0.0
71
0
42
10.0
3

4

1001
ACAD
1000
MS Gothic
1071
32817
0
STYLE
5
205
100
AcDbSymbolTableRecord
100
AcDbTextStyleTableRecord
2
_TateGothic_
70
4
40
0.0
41
1.0
50
0.0
71
0
42
0.0
3
@MS Gothic
4

0
ENDTAB
0
TABLE
2
VIEW
5
206
100
AcDbSymbolTable
70
0
0
ENDTAB
0
TABLE
2
UCS
5
207
100
AcDbSymbolTable
70
0
0
ENDTAB
0
TABLE
2
APPID
5
208
100
AcDbSymbolTable
70
1
0
APPID
5
209
100
AcDbSymbolTableRecord
100
AcDbRegAppTableRecord
2
ACAD
70
0
0
ENDTAB
0
TABLE
2
DIMSTYLE
5
403
330
0
100
AcDbSymbolTable
70
1
100
AcDbDimStyleTable
71
0
0
DIMSTYLE
105
404
330
402
100
AcDbSymbolTableRecord
100
AcDbDimStyleTableRecord
2
JAC_DIM
70
0
41
2.000
42
0.000
44
0.0
73
0
74
0
77
1
78
8
79
2
140
0.000
170
0
171
2
172
0
173
0
174
0
175
0
176
0
177
0
178
0
270
2
271
0
272
0
273
2
274
2
340
201
275
0
280
0
281
0
282
0
283
0
284
0
285
0
286
0
287
3
288
0
0
ENDTAB
0
TABLE
2
BLOCK_RECORD
5
405
100
AcDbSymbolTable
70
0
0
BLOCK_RECORD
5
406
100
AcDbSymbolTableRecord
100
AcDbBlockTableRecord
2
*MODEL_SPACE
0
BLOCK_RECORD
5
407
100
AcDbSymbolTableRecord
100
AcDbBlockTableRecord
2
*PAPER_SPACE
0
BLOCK_RECORD
5
408
100
AcDbSymbolTableRecord
100
AcDbBlockTableRecord
2
_JACCONVERT_
0
ENDTAB
0
TABLE
2
LAYER
5
409
100
AcDbSymbolTable
70
10
0
LAYER
5
40a
100
AcDbSymbolTableRecord
100
AcDbLayerTableRecord
2
0
70
0
62
7
6
CONTINUOUS
370
-3
390
14
0
LAYER
5
40b
100
AcDbSymbolTableRecord
100
AcDbLayerTableRecord
2
0-0
70
0
62
7
6
CONTINUOUS
370
-3
390
14
0
LAYER
5
40c
100
AcDbSymbolTableRecord
100
AcDbLayerTableRecord
2
1-0
70
0
62
7
6
CONTINUOUS
370
-3
390
14
0
LAYER
5
40d
100
AcDbSymbolTableRecord
100
AcDbLayerTableRecord
2
1-8
70
0
62
7
6
CONTINUOUS
370
-3
390
14
0
LAYER
5
40e
100
AcDbSymbolTableRecord
100
AcDbLayerTableRecord
2
2-0
70
0
62
7
6
CONTINUOUS
370
-3
390
14
0
LAYER
5
40f
100
AcDbSymbolTableRecord
100
AcDbLayerTableRecord
2
2-1
70
0
62
7
6
CONTINUOUS
370
-3
390
14
0
LAYER
5
410
100
AcDbSymbolTableRecord
100
AcDbLayerTableRecord
2
2-4
70
0
62
7
6
CONTINUOUS
370
-3
390
14
0
LAYER
5
411
100
AcDbSymbolTableRecord
100
AcDbLayerTableRecord
2
2-B
70
0
62
7
6
CONTINUOUS
370
-3
390
14
0
LAYER
5
412
100
AcDbSymbolTableRecord
100
AcDbLayerTableRecord
2
2-E
70
0
62
7
6
CONTINUOUS
370
-3
390
14
0
LAYER
5
413
100
AcDbSymbolTableRecord
100
AcDbLayerTableRecord
2
9-0
70
0
62
7
6
CONTINUOUS
370
-3
390
14
0
LAYER
5
414
100
AcDbSymbolTableRecord
100
AcDbLayerTableRecord
2
9-1
70
0
62
7
6
CONTINUOUS
370
-3
390
14
0
LAYER
5
415
100
AcDbSymbolTableRecord
100
AcDbLayerTableRecord
2
9-3
70
0
62
7
6
CONTINUOUS
370
-3
390
14
0
LAYER
5
416
100
AcDbSymbolTableRecord
100
AcDbLayerTableRecord
2
9-4
70
0
62
7
6
CONTINUOUS
370
-3
390
14
0
LAYER
5
417
100
AcDbSymbolTableRecord
100
AcDbLayerTableRecord
2
9-6
70
0
62
7
6
CONTINUOUS
370
-3
390
14
0
LAYER
5
418
100
AcDbSymbolTableRecord
100
AcDbLayerTableRecord
2
9-A
70
0
62
7
6
CONTINUOUS
370
-3
390
14
0
LAYER
5
419
100
AcDbSymbolTableRecord
100
AcDbLayerTableRecord
2
9-B
70
0
62
7
6
CONTINUOUS
370
-3
390
14
0
LAYER
5
41a
100
AcDbSymbolTableRecord
100
AcDbLayerTableRecord
2
9-E
70
0
62
7
6
CONTINUOUS
370
-3
390
14
0
LAYER
5
41b
100
AcDbSymbolTableRecord
100
AcDbLayerTableRecord
2
F-F_J_ADD
70
0
62
7
6
CONTINUOUS
290
0
370
-3
390
14
0
LAYER
5
41c
100
AcDbSymbolTableRecord
100
AcDbLayerTableRecord
2
F-E_J_ADD
70
0
62
-7
6
CONTINUOUS
290
0
370
-3
390
14
0
ENDTAB
0
ENDSEC
0
SECTION
2
BLOCKS
0
BLOCK
5
41d
100
AcDbEntity
67
1
8
0
100
AcDbBlockBegin
2
*MODEL_SPACE
70
0
10
0.0
20
0.0
30
0.0
3
*MODEL_SPACE
1

0
ENDBLK
5
41e
100
AcDbEntity
8
0
100
AcDbBlockEnd
0
BLOCK
5
41f
100
AcDbEntity
67
1
8
0
100
AcDbBlockBegin
2
*PAPER_SPACE
70
0
10
0.0
20
0.0
30
0.0
3
*PAPER_SPACE
1

0
ENDBLK
5
420
100
AcDbEntity
67
1
8
0
100
AcDbBlockEnd
0
BLOCK
5
421
100
AcDbEntity
8
0
100
AcDbBlockBegin
2
_JACCONVERT_
70
2
10
0.0
20
0.0
30
0.0
3
_JACCONVERT_
1
_JACCONVERT_
0
ATTDEF
5
422
100
AcDbEntity
8
0
62
0
100
AcDbText
10
0.0
20
0.0
30
0.0
40
1.0
1
User:33307E08109409567083093083089083760830E50960850900C608B4808D6408F6408F4F08E
100
AcDbAttributeDefinition
3

2
USER
70
8
0
ATTDEF
5
423
100
AcDbEntity
8
0
62
0
100
AcDbText
10
0.0
20
2.0
30
0.0
40
1.0
1
Date:24/01/30 10:25
100
AcDbAttributeDefinition
3

2
REVDATE
70
8
0
ATTDEF
5
424
100
AcDbEntity
8
0
62
0
100
AcDbText
10
0.0
20
4.0
30
0.0
40
1.0
1
File:_三方水密（壁付け）.dxf
100
AcDbAttributeDefinition
3

2
FNAME
70
8
0
ATTDEF
5
425
100
AcDbEntity
8
0
62
0
100
AcDbText
10
0.0
20
6.0
30
0.0
40
1.0
1
JacConvert Version3.13p copyright (c) 2001-2021 K.Nakahara
100
AcDbAttributeDefinition
3

2
VER
70
8
0
ENDBLK
5
426
100
AcDbEntity
67
1
8
0
100
AcDbBlockEnd
0
ENDSEC
0
SECTION
2
ENTITIES
0
LINE
5
427
100
AcDbEntity
8
1-0
6
CONTINUOUS
62
4
100
AcDbLine
10
175.648600000000
20
32.977600000000
30
0.0
11
281.096100000000
21
32.977600000000
31
0.0
0
LINE
5
428
100
AcDbEntity
8
1-0
6
CONTINUOUS
62
4
100
AcDbLine
10
175.648600000000
20
26.977600000000
30
0.0
11
281.096100000000
21
26.977600000000
31
0.0
0
LINE
5
429
100
AcDbEntity
8
1-0
6
CONTINUOUS
62
4
100
AcDbLine
10
175.648600000000
20
20.977600000000
30
0.0
11
281.096100000000
21
20.977600000000
31
0.0
0
POLYLINE
5
42a
100
AcDbEntity
8
0-0
6
CONTINUOUS
62
  3
100
AcDb2dPolyline
66
1
10
0.0
20
0.0
30
0.0
70
0
0
VERTEX
5
42b
100
AcDbEntity
8
0-0
6
CONTINUOUS
62
  3
100
AcDbVertex
100
AcDb2dVertex
10
405.000000000000
20
284.000000000000
30
0.0
0
VERTEX
5
42c
100
AcDbEntity
8
0-0
6
CONTINUOUS
62
  3
100
AcDbVertex
100
AcDb2dVertex
10
405.000000000000
20
14.000000000000
30
0.0
0
VERTEX
5
42d
100
AcDbEntity
8
0-0
6
CONTINUOUS
62
  3
100
AcDbVertex
100
AcDb2dVertex
10
20.000000000000
20
14.000000000000
30
0.0
0
SEQEND
5
42e
100
AcDbEntity
8
0-0
0
LINE
5
42f
100
AcDbEntity
8
0-0
6
CONTINUOUS
62
3
100
AcDbLine
10
310.500000000000
20
276.500000000000
30
0.0
11
405.000000000000
21
276.500000000000
31
0.0
0
LINE
5
430
100
AcDbEntity
8
0-0
6
CONTINUOUS
62
3
100
AcDbLine
10
310.500000000000
20
284.000000000000
30
0.0
11
310.500000000000
21
276.500000000000
31
0.0
0
LINE
5
431
100
AcDbEntity
8
0-0
6
CONTINUOUS
62
3
100
AcDbLine
10
365.500100000000
20
284.000000000000
30
0.0
11
365.500100000000
21
276.500000000000
31
0.0
0
LINE
5
432
100
AcDbEntity
8
0-0
6
CONTINUOUS
62
3
100
AcDbLine
10
385.500000000000
20
284.000000000000
30
0.0
11
385.500000000000
21
276.500000000000
31
0.0
0
LINE
5
433
100
AcDbEntity
8
0-0
6
CONTINUOUS
62
3
100
AcDbLine
10
321.500100000000
20
284.000000000000
30
0.0
11
321.500100000000
21
276.500000000000
31
0.0
0
POLYLINE
5
434
100
AcDbEntity
8
1-8
6
CONTINUOUS
62
  3
100
AcDb2dPolyline
66
1
10
0.0
20
0.0
30
0.0
70
0
0
VERTEX
5
435
100
AcDbEntity
8
1-8
6
CONTINUOUS
62
  3
100
AcDbVertex
100
AcDb2dVertex
10
320.240200000000
20
136.242700000000
30
0.0
0
VERTEX
5
436
100
AcDbEntity
8
1-8
6
CONTINUOUS
62
  3
100
AcDbVertex
100
AcDb2dVertex
10
345.240200000000
20
136.242700000000
30
0.0
0
VERTEX
5
437
100
AcDbEntity
8
1-8
6
CONTINUOUS
62
  3
100
AcDbVertex
100
AcDb2dVertex
10
345.240200000000
20
126.242700000000
30
0.0
0
VERTEX
5
438
100
AcDbEntity
8
1-8
6
CONTINUOUS
62
  3
100
AcDbVertex
100
AcDb2dVertex
10
320.240200000000
20
126.242700000000
30
0.0
0
VERTEX
5
439
100
AcDbEntity
8
1-8
6
CONTINUOUS
62
  3
100
AcDbVertex
100
AcDb2dVertex
10
320.240200000000
20
136.242700000000
30
0.0
0
SEQEND
5
43a
100
AcDbEntity
8
1-8
0
POLYLINE
5
43b
100
AcDbEntity
8
1-8
6
CONTINUOUS
62
  3
100
AcDb2dPolyline
66
1
10
0.0
20
0.0
30
0.0
70
0
0
VERTEX
5
43c
100
AcDbEntity
8
1-8
6
CONTINUOUS
62
  3
100
AcDbVertex
100
AcDb2dVertex
10
345.240200000000
20
131.242700000000
30
0.0
0
VERTEX
5
43d
100
AcDbEntity
8
1-8
6
CONTINUOUS
62
  3
100
AcDbVertex
100
AcDb2dVertex
10
370.240200000000
20
131.242700000000
30
0.0
0
VERTEX
5
43e
100
AcDbEntity
8
1-8
6
CONTINUOUS
62
  3
100
AcDbVertex
100
AcDb2dVertex
10
370.240200000000
20
126.242700000000
30
0.0
0
VERTEX
5
43f
100
AcDbEntity
8
1-8
6
CONTINUOUS
62
  3
100
AcDbVertex
100
AcDb2dVertex
10
345.240200000000
20
126.242700000000
30
0.0
0
VERTEX
5
440
100
AcDbEntity
8
1-8
6
CONTINUOUS
62
  3
100
AcDbVertex
100
AcDb2dVertex
10
345.240200000000
20
131.242700000000
30
0.0
0
SEQEND
5
441
100
AcDbEntity
8
1-8
0
POLYLINE
5
442
100
AcDbEntity
8
1-8
6
CONTINUOUS
62
  3
100
AcDb2dPolyline
66
1
10
0.0
20
0.0
30
0.0
70
0
0
VERTEX
5
443
100
AcDbEntity
8
1-8
6
CONTINUOUS
62
  3
100
AcDbVertex
100
AcDb2dVertex
10
320.240200000000
20
126.242700000000
30
0.0
0
VERTEX
5
444
100
AcDbEntity
8
1-8
6
CONTINUOUS
62
  3
100
AcDbVertex
100
AcDb2dVertex
10
345.240200000000
20
126.242700000000
30
0.0
0
VERTEX
5
445
100
AcDbEntity
8
1-8
6
CONTINUOUS
62
  3
100
AcDbVertex
100
AcDb2dVertex
10
345.240200000000
20
121.242700000000
30
0.0
0
VERTEX
5
446
100
AcDbEntity
8
1-8
6
CONTINUOUS
62
  3
100
AcDbVertex
100
AcDb2dVertex
10
320.240200000000
20
121.242700000000
30
0.0
0
VERTEX
5
447
100
AcDbEntity
8
1-8
6
CONTINUOUS
62
  3
100
AcDbVertex
100
AcDb2dVertex
10
320.240200000000
20
126.242700000000
30
0.0
0
SEQEND
5
448
100
AcDbEntity
8
1-8
0
POLYLINE
5
449
100
AcDbEntity
8
1-8
6
CONTINUOUS
62
  3
100
AcDb2dPolyline
66
1
10
0.0
20
0.0
30
0.0
70
0
0
VERTEX
5
44a
100
AcDbEntity
8
1-8
6
CONTINUOUS
62
  3
100
AcDbVertex
100
AcDb2dVertex
10
345.240200000000
20
126.242700000000
30
0.0
0
VERTEX
5
44b
100
AcDbEntity
8
1-8
6
CONTINUOUS
62
  3
100
AcDbVertex
100
AcDb2dVertex
10
370.240200000000
20
126.242700000000
30
0.0
0
VERTEX
5
44c
100
AcDbEntity
8
1-8
6
CONTINUOUS
62
  3
100
AcDbVertex
100
AcDb2dVertex
10
370.240200000000
20
121.242700000000
30
0.0
0
VERTEX
5
44d
100
AcDbEntity
8
1-8
6
CONTINUOUS
62
  3
100
AcDbVertex
100
AcDb2dVertex
10
345.240200000000
20
121.242700000000
30
0.0
0
VERTEX
5
44e
100
AcDbEntity
8
1-8
6
CONTINUOUS
62
  3
100
AcDbVertex
100
AcDb2dVertex
10
345.240200000000
20
126.242700000000
30
0.0
0
SEQEND
5
44f
100
AcDbEntity
8
1-8
0
POLYLINE
5
450
100
AcDbEntity
8
1-8
6
CONTINUOUS
62
  3
100
AcDb2dPolyline
66
1
10
0.0
20
0.0
30
0.0
70
0
0
VERTEX
5
451
100
AcDbEntity
8
1-8
6
CONTINUOUS
62
  3
100
AcDbVertex
100
AcDb2dVertex
10
320.240200000000
20
121.242700000000
30
0.0
0
VERTEX
5
452
100
AcDbEntity
8
1-8
6
CONTINUOUS
62
  3
100
AcDbVertex
100
AcDb2dVertex
10
345.240200000000
20
121.242700000000
30
0.0
0
VERTEX
5
453
100
AcDbEntity
8
1-8
6
CONTINUOUS
62
  3
100
AcDbVertex
100
AcDb2dVertex
10
345.240200000000
20
116.242700000000
30
0.0
0
VERTEX
5
454
100
AcDbEntity
8
1-8
6
CONTINUOUS
62
  3
100
AcDbVertex
100
AcDb2dVertex
10
320.240200000000
20
116.242700000000
30
0.0
0
VERTEX
5
455
100
AcDbEntity
8
1-8
6
CONTINUOUS
62
  3
100
AcDbVertex
100
AcDb2dVertex
10
320.240200000000
20
121.242700000000
30
0.0
0
SEQEND
5
456
100
AcDbEntity
8
1-8
0
POLYLINE
5
457
100
AcDbEntity
8
1-8
6
CONTINUOUS
62
  3
100
AcDb2dPolyline
66
1
10
0.0
20
0.0
30
0.0
70
0
0
VERTEX
5
458
100
AcDbEntity
8
1-8
6
CONTINUOUS
62
  3
100
AcDbVertex
100
AcDb2dVertex
10
345.240200000000
20
121.242700000000
30
0.0
0
VERTEX
5
459
100
AcDbEntity
8
1-8
6
CONTINUOUS
62
  3
100
AcDbVertex
100
AcDb2dVertex
10
370.240200000000
20
121.242700000000
30
0.0
0
VERTEX
5
45a
100
AcDbEntity
8
1-8
6
CONTINUOUS
62
  3
100
AcDbVertex
100
AcDb2dVertex
10
370.240200000000
20
116.242700000000
30
0.0
0
VERTEX
5
45b
100
AcDbEntity
8
1-8
6
CONTINUOUS
62
  3
100
AcDbVertex
100
AcDb2dVertex
10
345.240200000000
20
116.242700000000
30
0.0
0
VERTEX
5
45c
100
AcDbEntity
8
1-8
6
CONTINUOUS
62
  3
100
AcDbVertex
100
AcDb2dVertex
10
345.240200000000
20
121.242700000000
30
0.0
0
SEQEND
5
45d
100
AcDbEntity
8
1-8
0
POLYLINE
5
45e
100
AcDbEntity
8
1-8
6
CONTINUOUS
62
  3
100
AcDb2dPolyline
66
1
10
0.0
20
0.0
30
0.0
70
0
0
VERTEX
5
45f
100
AcDbEntity
8
1-8
6
CONTINUOUS
62
  3
100
AcDbVertex
100
AcDb2dVertex
10
320.240200000000
20
116.242700000000
30
0.0
0
VERTEX
5
460
100
AcDbEntity
8
1-8
6
CONTINUOUS
62
  3
100
AcDbVertex
100
AcDb2dVertex
10
345.240200000000
20
116.242700000000
30
0.0
0
VERTEX
5
461
100
AcDbEntity
8
1-8
6
CONTINUOUS
62
  3
100
AcDbVertex
100
AcDb2dVertex
10
345.240200000000
20
111.242700000000
30
0.0
0
VERTEX
5
462
100
AcDbEntity
8
1-8
6
CONTINUOUS
62
  3
100
AcDbVertex
100
AcDb2dVertex
10
320.240200000000
20
111.242700000000
30
0.0
0
VERTEX
5
463
100
AcDbEntity
8
1-8
6
CONTINUOUS
62
  3
100
AcDbVertex
100
AcDb2dVertex
10
320.240200000000
20
116.242700000000
30
0.0
0
SEQEND
5
464
100
AcDbEntity
8
1-8
0
POLYLINE
5
465
100
AcDbEntity
8
1-8
6
CONTINUOUS
62
  3
100
AcDb2dPolyline
66
1
10
0.0
20
0.0
30
0.0
70
0
0
VERTEX
5
466
100
AcDbEntity
8
1-8
6
CONTINUOUS
62
  3
100
AcDbVertex
100
AcDb2dVertex
10
345.240200000000
20
116.242700000000
30
0.0
0
VERTEX
5
467
100
AcDbEntity
8
1-8
6
CONTINUOUS
62
  3
100
AcDbVertex
100
AcDb2dVertex
10
370.240200000000
20
116.242700000000
30
0.0
0
VERTEX
5
468
100
AcDbEntity
8
1-8
6
CONTINUOUS
62
  3
100
AcDbVertex
100
AcDb2dVertex
10
370.240200000000
20
111.242700000000
30
0.0
0
VERTEX
5
469
100
AcDbEntity
8
1-8
6
CONTINUOUS
62
  3
100
AcDbVertex
100
AcDb2dVertex
10
345.240200000000
20
111.242700000000
30
0.0
0
VERTEX
5
46a
100
AcDbEntity
8
1-8
6
CONTINUOUS
62
  3
100
AcDbVertex
100
AcDb2dVertex
10
345.240200000000
20
116.242700000000
30
0.0
0
SEQEND
5
46b
100
AcDbEntity
8
1-8
0
POLYLINE
5
46c
100
AcDbEntity
8
1-8
6
CONTINUOUS
62
  3
100
AcDb2dPolyline
66
1
10
0.0
20
0.0
30
0.0
70
0
0
VERTEX
5
46d
100
AcDbEntity
8
1-8
6
CONTINUOUS
62
  3
100
AcDbVertex
100
AcDb2dVertex
10
320.240200000000
20
91.242700000000
30
0.0
0
VERTEX
5
46e
100
AcDbEntity
8
1-8
6
CONTINUOUS
62
  3
100
AcDbVertex
100
AcDb2dVertex
10
345.240200000000
20
91.242700000000
30
0.0
0
VERTEX
5
46f
100
AcDbEntity
8
1-8
6
CONTINUOUS
62
  3
100
AcDbVertex
100
AcDb2dVertex
10
345.240200000000
20
86.242700000000
30
0.0
0
VERTEX
5
470
100
AcDbEntity
8
1-8
6
CONTINUOUS
62
  3
100
AcDbVertex
100
AcDb2dVertex
10
320.240200000000
20
86.242700000000
30
0.0
0
VERTEX
5
471
100
AcDbEntity
8
1-8
6
CONTINUOUS
62
  3
100
AcDbVertex
100
AcDb2dVertex
10
320.240200000000
20
91.242700000000
30
0.0
0
SEQEND
5
472
100
AcDbEntity
8
1-8
0
POLYLINE
5
473
100
AcDbEntity
8
1-8
6
CONTINUOUS
62
  3
100
AcDb2dPolyline
66
1
10
0.0
20
0.0
30
0.0
70
0
0
VERTEX
5
474
100
AcDbEntity
8
1-8
6
CONTINUOUS
62
  3
100
AcDbVertex
100
AcDb2dVertex
10
345.240200000000
20
91.242700000000
30
0.0
0
VERTEX
5
475
100
AcDbEntity
8
1-8
6
CONTINUOUS
62
  3
100
AcDbVertex
100
AcDb2dVertex
10
370.240200000000
20
91.242700000000
30
0.0
0
VERTEX
5
476
100
AcDbEntity
8
1-8
6
CONTINUOUS
62
  3
100
AcDbVertex
100
AcDb2dVertex
10
370.240200000000
20
86.242700000000
30
0.0
0
VERTEX
5
477
100
AcDbEntity
8
1-8
6
CONTINUOUS
62
  3
100
AcDbVertex
100
AcDb2dVertex
10
345.240200000000
20
86.242700000000
30
0.0
0
VERTEX
5
478
100
AcDbEntity
8
1-8
6
CONTINUOUS
62
  3
100
AcDbVertex
100
AcDb2dVertex
10
345.240200000000
20
91.242700000000
30
0.0
0
SEQEND
5
479
100
AcDbEntity
8
1-8
0
POLYLINE
5
47a
100
AcDbEntity
8
1-8
6
CONTINUOUS
62
  3
100
AcDb2dPolyline
66
1
10
0.0
20
0.0
30
0.0
70
0
0
VERTEX
5
47b
100
AcDbEntity
8
1-8
6
CONTINUOUS
62
  3
100
AcDbVertex
100
AcDb2dVertex
10
320.240200000000
20
86.242700000000
30
0.0
0
VERTEX
5
47c
100
AcDbEntity
8
1-8
6
CONTINUOUS
62
  3
100
AcDbVertex
100
AcDb2dVertex
10
345.240200000000
20
86.242700000000
30
0.0
0
VERTEX
5
47d
100
AcDbEntity
8
1-8
6
CONTINUOUS
62
  3
100
AcDbVertex
100
AcDb2dVertex
10
345.240200000000
20
81.242700000000
30
0.0
0
VERTEX
5
47e
100
AcDbEntity
8
1-8
6
CONTINUOUS
62
  3
100
AcDbVertex
100
AcDb2dVertex
10
320.240200000000
20
81.242700000000
30
0.0
0
VERTEX
5
47f
100
AcDbEntity
8
1-8
6
CONTINUOUS
62
  3
100
AcDbVertex
100
AcDb2dVertex
10
320.240200000000
20
86.242700000000
30
0.0
0
SEQEND
5
480
100
AcDbEntity
8
1-8
0
POLYLINE
5
481
100
AcDbEntity
8
1-8
6
CONTINUOUS
62
  3
100
AcDb2dPolyline
66
1
10
0.0
20
0.0
30
0.0
70
0
0
VERTEX
5
482
100
AcDbEntity
8
1-8
6
CONTINUOUS
62
  3
100
AcDbVertex
100
AcDb2dVertex
10
345.240200000000
20
86.242700000000
30
0.0
0
VERTEX
5
483
100
AcDbEntity
8
1-8
6
CONTINUOUS
62
  3
100
AcDbVertex
100
AcDb2dVertex
10
370.240200000000
20
86.242700000000
30
0.0
0
VERTEX
5
484
100
AcDbEntity
8
1-8
6
CONTINUOUS
62
  3
100
AcDbVertex
100
AcDb2dVertex
10
370.240200000000
20
81.242700000000
30
0.0
0
VERTEX
5
485
100
AcDbEntity
8
1-8
6
CONTINUOUS
62
  3
100
AcDbVertex
100
AcDb2dVertex
10
345.240200000000
20
81.242700000000
30
0.0
0
VERTEX
5
486
100
AcDbEntity
8
1-8
6
CONTINUOUS
62
  3
100
AcDbVertex
100
AcDb2dVertex
10
345.240200000000
20
86.242700000000
30
0.0
0
SEQEND
5
487
100
AcDbEntity
8
1-8
0
POLYLINE
5
488
100
AcDbEntity
8
1-8
6
CONTINUOUS
62
  3
100
AcDb2dPolyline
66
1
10
0.0
20
0.0
30
0.0
70
0
0
VERTEX
5
489
100
AcDbEntity
8
1-8
6
CONTINUOUS
62
  3
100
AcDbVertex
100
AcDb2dVertex
10
320.240200000000
20
81.242700000000
30
0.0
0
VERTEX
5
48a
100
AcDbEntity
8
1-8
6
CONTINUOUS
62
  3
100
AcDbVertex
100
AcDb2dVertex
10
345.240200000000
20
81.242700000000
30
0.0
0
VERTEX
5
48b
100
AcDbEntity
8
1-8
6
CONTINUOUS
62
  3
100
AcDbVertex
100
AcDb2dVertex
10
345.240200000000
20
76.242700000000
30
0.0
0
VERTEX
5
48c
100
AcDbEntity
8
1-8
6
CONTINUOUS
62
  3
100
AcDbVertex
100
AcDb2dVertex
10
320.240200000000
20
76.242700000000
30
0.0
0
VERTEX
5
48d
100
AcDbEntity
8
1-8
6
CONTINUOUS
62
  3
100
AcDbVertex
100
AcDb2dVertex
10
320.240200000000
20
81.242700000000
30
0.0
0
SEQEND
5
48e
100
AcDbEntity
8
1-8
0
POLYLINE
5
48f
100
AcDbEntity
8
1-8
6
CONTINUOUS
62
  3
100
AcDb2dPolyline
66
1
10
0.0
20
0.0
30
0.0
70
0
0
VERTEX
5
490
100
AcDbEntity
8
1-8
6
CONTINUOUS
62
  3
100
AcDbVertex
100
AcDb2dVertex
10
345.240200000000
20
81.242700000000
30
0.0
0
VERTEX
5
491
100
AcDbEntity
8
1-8
6
CONTINUOUS
62
  3
100
AcDbVertex
100
AcDb2dVertex
10
370.240200000000
20
81.242700000000
30
0.0
0
VERTEX
5
492
100
AcDbEntity
8
1-8
6
CONTINUOUS
62
  3
100
AcDbVertex
100
AcDb2dVertex
10
370.240200000000
20
76.242700000000
30
0.0
0
VERTEX
5
493
100
AcDbEntity
8
1-8
6
CONTINUOUS
62
  3
100
AcDbVertex
100
AcDb2dVertex
10
345.240200000000
20
76.242700000000
30
0.0
0
VERTEX
5
494
100
AcDbEntity
8
1-8
6
CONTINUOUS
62
  3
100
AcDbVertex
100
AcDb2dVertex
10
345.240200000000
20
81.242700000000
30
0.0
0
SEQEND
5
495
100
AcDbEntity
8
1-8
0
LINE
5
496
100
AcDbEntity
8
1-8
6
CONTINUOUS
62
7
100
AcDbLine
10
346.511500000000
20
139.937600000000
30
0.0
11
368.968900000000
21
139.937600000000
31
0.0
0
LINE
5
497
100
AcDbEntity
8
1-8
6
CONTINUOUS
62
7
100
AcDbLine
10
346.511500000000
20
139.477900000000
30
0.0
11
368.968900000000
21
139.477900000000
31
0.0
0
POLYLINE
5
498
100
AcDbEntity
8
1-8
6
CONTINUOUS
62
  3
100
AcDb2dPolyline
66
1
10
0.0
20
0.0
30
0.0
70
0
0
VERTEX
5
499
100
AcDbEntity
8
1-8
6
CONTINUOUS
62
  3
100
AcDbVertex
100
AcDb2dVertex
10
320.240200000000
20
111.242700000000
30
0.0
0
VERTEX
5
49a
100
AcDbEntity
8
1-8
6
CONTINUOUS
62
  3
100
AcDbVertex
100
AcDb2dVertex
10
345.240200000000
20
111.242700000000
30
0.0
0
VERTEX
5
49b
100
AcDbEntity
8
1-8
6
CONTINUOUS
62
  3
100
AcDbVertex
100
AcDb2dVertex
10
345.240200000000
20
106.242700000000
30
0.0
0
VERTEX
5
49c
100
AcDbEntity
8
1-8
6
CONTINUOUS
62
  3
100
AcDbVertex
100
AcDb2dVertex
10
320.240200000000
20
106.242700000000
30
0.0
0
VERTEX
5
49d
100
AcDbEntity
8
1-8
6
CONTINUOUS
62
  3
100
AcDbVertex
100
AcDb2dVertex
10
320.240200000000
20
111.242700000000
30
0.0
0
SEQEND
5
49e
100
AcDbEntity
8
1-8
0
POLYLINE
5
49f
100
AcDbEntity
8
1-8
6
CONTINUOUS
62
  3
100
AcDb2dPolyline
66
1
10
0.0
20
0.0
30
0.0
70
0
0
VERTEX
5
4a0
100
AcDbEntity
8
1-8
6
CONTINUOUS
62
  3
100
AcDbVertex
100
AcDb2dVertex
10
345.240200000000
20
111.242700000000
30
0.0
0
VERTEX
5
4a1
100
AcDbEntity
8
1-8
6
CONTINUOUS
62
  3
100
AcDbVertex
100
AcDb2dVertex
10
370.240200000000
20
111.242700000000
30
0.0
0
VERTEX
5
4a2
100
AcDbEntity
8
1-8
6
CONTINUOUS
62
  3
100
AcDbVertex
100
AcDb2dVertex
10
370.240200000000
20
106.242700000000
30
0.0
0
VERTEX
5
4a3
100
AcDbEntity
8
1-8
6
CONTINUOUS
62
  3
100
AcDbVertex
100
AcDb2dVertex
10
345.240200000000
20
106.242700000000
30
0.0
0
VERTEX
5
4a4
100
AcDbEntity
8
1-8
6
CONTINUOUS
62
  3
100
AcDbVertex
100
AcDb2dVertex
10
345.240200000000
20
111.242700000000
30
0.0
0
SEQEND
5
4a5
100
AcDbEntity
8
1-8
0
POLYLINE
5
4a6
100
AcDbEntity
8
1-8
6
CONTINUOUS
62
  3
100
AcDb2dPolyline
66
1
10
0.0
20
0.0
30
0.0
70
0
0
VERTEX
5
4a7
100
AcDbEntity
8
1-8
6
CONTINUOUS
62
  3
100
AcDbVertex
100
AcDb2dVertex
10
320.240200000000
20
101.242700000000
30
0.0
0
VERTEX
5
4a8
100
AcDbEntity
8
1-8
6
CONTINUOUS
62
  3
100
AcDbVertex
100
AcDb2dVertex
10
345.240200000000
20
101.242700000000
30
0.0
0
VERTEX
5
4a9
100
AcDbEntity
8
1-8
6
CONTINUOUS
62
  3
100
AcDbVertex
100
AcDb2dVertex
10
345.240200000000
20
96.242700000000
30
0.0
0
VERTEX
5
4aa
100
AcDbEntity
8
1-8
6
CONTINUOUS
62
  3
100
AcDbVertex
100
AcDb2dVertex
10
320.240200000000
20
96.242700000000
30
0.0
0
VERTEX
5
4ab
100
AcDbEntity
8
1-8
6
CONTINUOUS
62
  3
100
AcDbVertex
100
AcDb2dVertex
10
320.240200000000
20
101.242700000000
30
0.0
0
SEQEND
5
4ac
100
AcDbEntity
8
1-8
0
POLYLINE
5
4ad
100
AcDbEntity
8
1-8
6
CONTINUOUS
62
  3
100
AcDb2dPolyline
66
1
10
0.0
20
0.0
30
0.0
70
0
0
VERTEX
5
4ae
100
AcDbEntity
8
1-8
6
CONTINUOUS
62
  3
100
AcDbVertex
100
AcDb2dVertex
10
345.240200000000
20
101.242700000000
30
0.0
0
VERTEX
5
4af
100
AcDbEntity
8
1-8
6
CONTINUOUS
62
  3
100
AcDbVertex
100
AcDb2dVertex
10
370.240200000000
20
101.242700000000
30
0.0
0
VERTEX
5
4b0
100
AcDbEntity
8
1-8
6
CONTINUOUS
62
  3
100
AcDbVertex
100
AcDb2dVertex
10
370.240200000000
20
96.242700000000
30
0.0
0
VERTEX
5
4b1
100
AcDbEntity
8
1-8
6
CONTINUOUS
62
  3
100
AcDbVertex
100
AcDb2dVertex
10
345.240200000000
20
96.242700000000
30
0.0
0
VERTEX
5
4b2
100
AcDbEntity
8
1-8
6
CONTINUOUS
62
  3
100
AcDbVertex
100
AcDb2dVertex
10
345.240200000000
20
101.242700000000
30
0.0
0
SEQEND
5
4b3
100
AcDbEntity
8
1-8
0
POLYLINE
5
4b4
100
AcDbEntity
8
1-8
6
CONTINUOUS
62
  3
100
AcDb2dPolyline
66
1
10
0.0
20
0.0
30
0.0
70
0
0
VERTEX
5
4b5
100
AcDbEntity
8
1-8
6
CONTINUOUS
62
  3
100
AcDbVertex
100
AcDb2dVertex
10
320.240200000000
20
106.242700000000
30
0.0
0
VERTEX
5
4b6
100
AcDbEntity
8
1-8
6
CONTINUOUS
62
  3
100
AcDbVertex
100
AcDb2dVertex
10
345.240200000000
20
106.242700000000
30
0.0
0
VERTEX
5
4b7
100
AcDbEntity
8
1-8
6
CONTINUOUS
62
  3
100
AcDbVertex
100
AcDb2dVertex
10
345.240200000000
20
101.242700000000
30
0.0
0
VERTEX
5
4b8
100
AcDbEntity
8
1-8
6
CONTINUOUS
62
  3
100
AcDbVertex
100
AcDb2dVertex
10
320.240200000000
20
101.242700000000
30
0.0
0
VERTEX
5
4b9
100
AcDbEntity
8
1-8
6
CONTINUOUS
62
  3
100
AcDbVertex
100
AcDb2dVertex
10
320.240200000000
20
106.242700000000
30
0.0
0
SEQEND
5
4ba
100
AcDbEntity
8
1-8
0
POLYLINE
5
4bb
100
AcDbEntity
8
1-8
6
CONTINUOUS
62
  3
100
AcDb2dPolyline
66
1
10
0.0
20
0.0
30
0.0
70
0
0
VERTEX
5
4bc
100
AcDbEntity
8
1-8
6
CONTINUOUS
62
  3
100
AcDbVertex
100
AcDb2dVertex
10
345.240200000000
20
106.242700000000
30
0.0
0
VERTEX
5
4bd
100
AcDbEntity
8
1-8
6
CONTINUOUS
62
  3
100
AcDbVertex
100
AcDb2dVertex
10
370.240200000000
20
106.242700000000
30
0.0
0
VERTEX
5
4be
100
AcDbEntity
8
1-8
6
CONTINUOUS
62
  3
100
AcDbVertex
100
AcDb2dVertex
10
370.240200000000
20
101.242700000000
30
0.0
0
VERTEX
5
4bf
100
AcDbEntity
8
1-8
6
CONTINUOUS
62
  3
100
AcDbVertex
100
AcDb2dVertex
10
345.240200000000
20
101.242700000000
30
0.0
0
VERTEX
5
4c0
100
AcDbEntity
8
1-8
6
CONTINUOUS
62
  3
100
AcDbVertex
100
AcDb2dVertex
10
345.240200000000
20
106.242700000000
30
0.0
0
SEQEND
5
4c1
100
AcDbEntity
8
1-8
0
POLYLINE
5
4c2
100
AcDbEntity
8
1-8
6
CONTINUOUS
62
  3
100
AcDb2dPolyline
66
1
10
0.0
20
0.0
30
0.0
70
0
0
VERTEX
5
4c3
100
AcDbEntity
8
1-8
6
CONTINUOUS
62
  3
100
AcDbVertex
100
AcDb2dVertex
10
320.240200000000
20
96.242700000000
30
0.0
0
VERTEX
5
4c4
100
AcDbEntity
8
1-8
6
CONTINUOUS
62
  3
100
AcDbVertex
100
AcDb2dVertex
10
345.240200000000
20
96.242700000000
30
0.0
0
VERTEX
5
4c5
100
AcDbEntity
8
1-8
6
CONTINUOUS
62
  3
100
AcDbVertex
100
AcDb2dVertex
10
345.240200000000
20
91.242700000000
30
0.0
0
VERTEX
5
4c6
100
AcDbEntity
8
1-8
6
CONTINUOUS
62
  3
100
AcDbVertex
100
AcDb2dVertex
10
320.240200000000
20
91.242700000000
30
0.0
0
VERTEX
5
4c7
100
AcDbEntity
8
1-8
6
CONTINUOUS
62
  3
100
AcDbVertex
100
AcDb2dVertex
10
320.240200000000
20
96.242700000000
30
0.0
0
SEQEND
5
4c8
100
AcDbEntity
8
1-8
0
POLYLINE
5
4c9
100
AcDbEntity
8
1-8
6
CONTINUOUS
62
  3
100
AcDb2dPolyline
66
1
10
0.0
20
0.0
30
0.0
70
0
0
VERTEX
5
4ca
100
AcDbEntity
8
1-8
6
CONTINUOUS
62
  3
100
AcDbVertex
100
AcDb2dVertex
10
345.240200000000
20
96.242700000000
30
0.0
0
VERTEX
5
4cb
100
AcDbEntity
8
1-8
6
CONTINUOUS
62
  3
100
AcDbVertex
100
AcDb2dVertex
10
370.240200000000
20
96.242700000000
30
0.0
0
VERTEX
5
4cc
100
AcDbEntity
8
1-8
6
CONTINUOUS
62
  3
100
AcDbVertex
100
AcDb2dVertex
10
370.240200000000
20
91.242700000000
30
0.0
0
VERTEX
5
4cd
100
AcDbEntity
8
1-8
6
CONTINUOUS
62
  3
100
AcDbVertex
100
AcDb2dVertex
10
345.240200000000
20
91.242700000000
30
0.0
0
VERTEX
5
4ce
100
AcDbEntity
8
1-8
6
CONTINUOUS
62
  3
100
AcDbVertex
100
AcDb2dVertex
10
345.240200000000
20
96.242700000000
30
0.0
0
SEQEND
5
4cf
100
AcDbEntity
8
1-8
0
POLYLINE
5
4d0
100
AcDbEntity
8
0-0
6
CONTINUOUS
62
  3
100
AcDb2dPolyline
66
1
10
0.0
20
0.0
30
0.0
70
0
0
VERTEX
5
4d1
100
AcDbEntity
8
0-0
6
CONTINUOUS
62
  3
100
AcDbVertex
100
AcDb2dVertex
10
405.000000000000
20
284.000000000000
30
0.0
0
VERTEX
5
4d2
100
AcDbEntity
8
0-0
6
CONTINUOUS
62
  3
100
AcDbVertex
100
AcDb2dVertex
10
20.000000000000
20
284.000000000000
30
0.0
0
VERTEX
5
4d3
100
AcDbEntity
8
0-0
6
CONTINUOUS
62
  3
100
AcDbVertex
100
AcDb2dVertex
10
20.000000000000
20
14.000000000000
30
0.0
0
SEQEND
5
4d4
100
AcDbEntity
8
0-0
0
POLYLINE
5
4d5
100
AcDbEntity
8
F-F_J_ADD
6
DOT
62
109
100
AcDb2dPolyline
66
1
10
0.0
20
0.0
30
0.0
70
0
0
VERTEX
5
4d6
100
AcDbEntity
8
F-F_J_ADD
6
DOT
62
109
100
AcDbVertex
100
AcDb2dVertex
10
0.000000000000
20
297.000000000000
30
0.0
0
VERTEX
5
4d7
100
AcDbEntity
8
F-F_J_ADD
6
DOT
62
109
100
AcDbVertex
100
AcDb2dVertex
10
420.000000000000
20
297.000000000000
30
0.0
0
VERTEX
5
4d8
100
AcDbEntity
8
F-F_J_ADD
6
DOT
62
109
100
AcDbVertex
100
AcDb2dVertex
10
420.000000000000
20
0.000000000000
30
0.0
0
SEQEND
5
4d9
100
AcDbEntity
8
F-F_J_ADD
0
LINE
5
4da
100
AcDbEntity
8
F-F_J_ADD
6
DOT
62
109
100
AcDbLine
10
0.000000000000
20
0.000000000000
30
0.0
11
420.000000000000
21
0.000000000000
31
0.0
0
LINE
5
4db
100
AcDbEntity
8
F-F_J_ADD
6
DOT
62
109
100
AcDbLine
10
0.000000000000
20
297.000000000000
30
0.0
11
0.000000000000
21
0.000000000000
31
0.0
0
POLYLINE
5
4dc
100
AcDbEntity
8
1-8
6
CONTINUOUS
62
  3
100
AcDb2dPolyline
66
1
10
0.0
20
0.0
30
0.0
70
0
0
VERTEX
5
4dd
100
AcDbEntity
8
1-8
6
CONTINUOUS
62
  3
100
AcDbVertex
100
AcDb2dVertex
10
370.240200000000
20
126.242700000000
30
0.0
0
VERTEX
5
4de
100
AcDbEntity
8
1-8
6
CONTINUOUS
62
  3
100
AcDbVertex
100
AcDb2dVertex
10
395.240100000000
20
126.242700000000
30
0.0
0
VERTEX
5
4df
100
AcDbEntity
8
1-8
6
CONTINUOUS
62
  3
100
AcDbVertex
100
AcDb2dVertex
10
395.240100000000
20
121.242700000000
30
0.0
0
VERTEX
5
4e0
100
AcDbEntity
8
1-8
6
CONTINUOUS
62
  3
100
AcDbVertex
100
AcDb2dVertex
10
370.240200000000
20
121.242700000000
30
0.0
0
VERTEX
5
4e1
100
AcDbEntity
8
1-8
6
CONTINUOUS
62
  3
100
AcDbVertex
100
AcDb2dVertex
10
370.240200000000
20
126.242700000000
30
0.0
0
SEQEND
5
4e2
100
AcDbEntity
8
1-8
0
POLYLINE
5
4e3
100
AcDbEntity
8
1-8
6
CONTINUOUS
62
  3
100
AcDb2dPolyline
66
1
10
0.0
20
0.0
30
0.0
70
0
0
VERTEX
5
4e4
100
AcDbEntity
8
1-8
6
CONTINUOUS
62
  3
100
AcDbVertex
100
AcDb2dVertex
10
370.240200000000
20
121.242700000000
30
0.0
0
VERTEX
5
4e5
100
AcDbEntity
8
1-8
6
CONTINUOUS
62
  3
100
AcDbVertex
100
AcDb2dVertex
10
395.240100000000
20
121.242700000000
30
0.0
0
VERTEX
5
4e6
100
AcDbEntity
8
1-8
6
CONTINUOUS
62
  3
100
AcDbVertex
100
AcDb2dVertex
10
395.240100000000
20
116.242700000000
30
0.0
0
VERTEX
5
4e7
100
AcDbEntity
8
1-8
6
CONTINUOUS
62
  3
100
AcDbVertex
100
AcDb2dVertex
10
370.240200000000
20
116.242700000000
30
0.0
0
VERTEX
5
4e8
100
AcDbEntity
8
1-8
6
CONTINUOUS
62
  3
100
AcDbVertex
100
AcDb2dVertex
10
370.240200000000
20
121.242700000000
30
0.0
0
SEQEND
5
4e9
100
AcDbEntity
8
1-8
0
POLYLINE
5
4ea
100
AcDbEntity
8
1-8
6
CONTINUOUS
62
  3
100
AcDb2dPolyline
66
1
10
0.0
20
0.0
30
0.0
70
0
0
VERTEX
5
4eb
100
AcDbEntity
8
1-8
6
CONTINUOUS
62
  3
100
AcDbVertex
100
AcDb2dVertex
10
370.240200000000
20
116.242700000000
30
0.0
0
VERTEX
5
4ec
100
AcDbEntity
8
1-8
6
CONTINUOUS
62
  3
100
AcDbVertex
100
AcDb2dVertex
10
395.240100000000
20
116.242700000000
30
0.0
0
VERTEX
5
4ed
100
AcDbEntity
8
1-8
6
CONTINUOUS
62
  3
100
AcDbVertex
100
AcDb2dVertex
10
395.240100000000
20
111.242700000000
30
0.0
0
VERTEX
5
4ee
100
AcDbEntity
8
1-8
6
CONTINUOUS
62
  3
100
AcDbVertex
100
AcDb2dVertex
10
370.240200000000
20
111.242700000000
30
0.0
0
VERTEX
5
4ef
100
AcDbEntity
8
1-8
6
CONTINUOUS
62
  3
100
AcDbVertex
100
AcDb2dVertex
10
370.240200000000
20
116.242700000000
30
0.0
0
SEQEND
5
4f0
100
AcDbEntity
8
1-8
0
POLYLINE
5
4f1
100
AcDbEntity
8
1-8
6
CONTINUOUS
62
  3
100
AcDb2dPolyline
66
1
10
0.0
20
0.0
30
0.0
70
0
0
VERTEX
5
4f2
100
AcDbEntity
8
1-8
6
CONTINUOUS
62
  3
100
AcDbVertex
100
AcDb2dVertex
10
370.240200000000
20
91.242700000000
30
0.0
0
VERTEX
5
4f3
100
AcDbEntity
8
1-8
6
CONTINUOUS
62
  3
100
AcDbVertex
100
AcDb2dVertex
10
395.240100000000
20
91.242700000000
30
0.0
0
VERTEX
5
4f4
100
AcDbEntity
8
1-8
6
CONTINUOUS
62
  3
100
AcDbVertex
100
AcDb2dVertex
10
395.240100000000
20
86.242700000000
30
0.0
0
VERTEX
5
4f5
100
AcDbEntity
8
1-8
6
CONTINUOUS
62
  3
100
AcDbVertex
100
AcDb2dVertex
10
370.240200000000
20
86.242700000000
30
0.0
0
VERTEX
5
4f6
100
AcDbEntity
8
1-8
6
CONTINUOUS
62
  3
100
AcDbVertex
100
AcDb2dVertex
10
370.240200000000
20
91.242700000000
30
0.0
0
SEQEND
5
4f7
100
AcDbEntity
8
1-8
0
POLYLINE
5
4f8
100
AcDbEntity
8
1-8
6
CONTINUOUS
62
  3
100
AcDb2dPolyline
66
1
10
0.0
20
0.0
30
0.0
70
0
0
VERTEX
5
4f9
100
AcDbEntity
8
1-8
6
CONTINUOUS
62
  3
100
AcDbVertex
100
AcDb2dVertex
10
370.240200000000
20
86.242700000000
30
0.0
0
VERTEX
5
4fa
100
AcDbEntity
8
1-8
6
CONTINUOUS
62
  3
100
AcDbVertex
100
AcDb2dVertex
10
395.240100000000
20
86.242700000000
30
0.0
0
VERTEX
5
4fb
100
AcDbEntity
8
1-8
6
CONTINUOUS
62
  3
100
AcDbVertex
100
AcDb2dVertex
10
395.240100000000
20
81.242700000000
30
0.0
0
VERTEX
5
4fc
100
AcDbEntity
8
1-8
6
CONTINUOUS
62
  3
100
AcDbVertex
100
AcDb2dVertex
10
370.240200000000
20
81.242700000000
30
0.0
0
VERTEX
5
4fd
100
AcDbEntity
8
1-8
6
CONTINUOUS
62
  3
100
AcDbVertex
100
AcDb2dVertex
10
370.240200000000
20
86.242700000000
30
0.0
0
SEQEND
5
4fe
100
AcDbEntity
8
1-8
0
POLYLINE
5
4ff
100
AcDbEntity
8
1-8
6
CONTINUOUS
62
  3
100
AcDb2dPolyline
66
1
10
0.0
20
0.0
30
0.0
70
0
0
VERTEX
5
500
100
AcDbEntity
8
1-8
6
CONTINUOUS
62
  3
100
AcDbVertex
100
AcDb2dVertex
10
370.240200000000
20
81.242700000000
30
0.0
0
VERTEX
5
501
100
AcDbEntity
8
1-8
6
CONTINUOUS
62
  3
100
AcDbVertex
100
AcDb2dVertex
10
395.240100000000
20
81.242700000000
30
0.0
0
VERTEX
5
502
100
AcDbEntity
8
1-8
6
CONTINUOUS
62
  3
100
AcDbVertex
100
AcDb2dVertex
10
395.240100000000
20
76.242700000000
30
0.0
0
VERTEX
5
503
100
AcDbEntity
8
1-8
6
CONTINUOUS
62
  3
100
AcDbVertex
100
AcDb2dVertex
10
370.240200000000
20
76.242700000000
30
0.0
0
VERTEX
5
504
100
AcDbEntity
8
1-8
6
CONTINUOUS
62
  3
100
AcDbVertex
100
AcDb2dVertex
10
370.240200000000
20
81.242700000000
30
0.0
0
SEQEND
5
505
100
AcDbEntity
8
1-8
0
POLYLINE
5
506
100
AcDbEntity
8
1-8
6
CONTINUOUS
62
  3
100
AcDb2dPolyline
66
1
10
0.0
20
0.0
30
0.0
70
0
0
VERTEX
5
507
100
AcDbEntity
8
1-8
6
CONTINUOUS
62
  3
100
AcDbVertex
100
AcDb2dVertex
10
370.240200000000
20
111.242700000000
30
0.0
0
VERTEX
5
508
100
AcDbEntity
8
1-8
6
CONTINUOUS
62
  3
100
AcDbVertex
100
AcDb2dVertex
10
395.240100000000
20
111.242700000000
30
0.0
0
VERTEX
5
509
100
AcDbEntity
8
1-8
6
CONTINUOUS
62
  3
100
AcDbVertex
100
AcDb2dVertex
10
395.240100000000
20
106.242700000000
30
0.0
0
VERTEX
5
50a
100
AcDbEntity
8
1-8
6
CONTINUOUS
62
  3
100
AcDbVertex
100
AcDb2dVertex
10
370.240200000000
20
106.242700000000
30
0.0
0
VERTEX
5
50b
100
AcDbEntity
8
1-8
6
CONTINUOUS
62
  3
100
AcDbVertex
100
AcDb2dVertex
10
370.240200000000
20
111.242700000000
30
0.0
0
SEQEND
5
50c
100
AcDbEntity
8
1-8
0
POLYLINE
5
50d
100
AcDbEntity
8
1-8
6
CONTINUOUS
62
  3
100
AcDb2dPolyline
66
1
10
0.0
20
0.0
30
0.0
70
0
0
VERTEX
5
50e
100
AcDbEntity
8
1-8
6
CONTINUOUS
62
  3
100
AcDbVertex
100
AcDb2dVertex
10
370.240200000000
20
101.242700000000
30
0.0
0
VERTEX
5
50f
100
AcDbEntity
8
1-8
6
CONTINUOUS
62
  3
100
AcDbVertex
100
AcDb2dVertex
10
395.240100000000
20
101.242700000000
30
0.0
0
VERTEX
5
510
100
AcDbEntity
8
1-8
6
CONTINUOUS
62
  3
100
AcDbVertex
100
AcDb2dVertex
10
395.240100000000
20
96.242700000000
30
0.0
0
VERTEX
5
511
100
AcDbEntity
8
1-8
6
CONTINUOUS
62
  3
100
AcDbVertex
100
AcDb2dVertex
10
370.240200000000
20
96.242700000000
30
0.0
0
VERTEX
5
512
100
AcDbEntity
8
1-8
6
CONTINUOUS
62
  3
100
AcDbVertex
100
AcDb2dVertex
10
370.240200000000
20
101.242700000000
30
0.0
0
SEQEND
5
513
100
AcDbEntity
8
1-8
0
POLYLINE
5
514
100
AcDbEntity
8
1-8
6
CONTINUOUS
62
  3
100
AcDb2dPolyline
66
1
10
0.0
20
0.0
30
0.0
70
0
0
VERTEX
5
515
100
AcDbEntity
8
1-8
6
CONTINUOUS
62
  3
100
AcDbVertex
100
AcDb2dVertex
10
370.240200000000
20
106.242700000000
30
0.0
0
VERTEX
5
516
100
AcDbEntity
8
1-8
6
CONTINUOUS
62
  3
100
AcDbVertex
100
AcDb2dVertex
10
395.240100000000
20
106.242700000000
30
0.0
0
VERTEX
5
517
100
AcDbEntity
8
1-8
6
CONTINUOUS
62
  3
100
AcDbVertex
100
AcDb2dVertex
10
395.240100000000
20
101.242700000000
30
0.0
0
VERTEX
5
518
100
AcDbEntity
8
1-8
6
CONTINUOUS
62
  3
100
AcDbVertex
100
AcDb2dVertex
10
370.240200000000
20
101.242700000000
30
0.0
0
VERTEX
5
519
100
AcDbEntity
8
1-8
6
CONTINUOUS
62
  3
100
AcDbVertex
100
AcDb2dVertex
10
370.240200000000
20
106.242700000000
30
0.0
0
SEQEND
5
51a
100
AcDbEntity
8
1-8
0
POLYLINE
5
51b
100
AcDbEntity
8
1-8
6
CONTINUOUS
62
  3
100
AcDb2dPolyline
66
1
10
0.0
20
0.0
30
0.0
70
0
0
VERTEX
5
51c
100
AcDbEntity
8
1-8
6
CONTINUOUS
62
  3
100
AcDbVertex
100
AcDb2dVertex
10
370.240200000000
20
96.242700000000
30
0.0
0
VERTEX
5
51d
100
AcDbEntity
8
1-8
6
CONTINUOUS
62
  3
100
AcDbVertex
100
AcDb2dVertex
10
395.240100000000
20
96.242700000000
30
0.0
0
VERTEX
5
51e
100
AcDbEntity
8
1-8
6
CONTINUOUS
62
  3
100
AcDbVertex
100
AcDb2dVertex
10
395.240100000000
20
91.242700000000
30
0.0
0
VERTEX
5
51f
100
AcDbEntity
8
1-8
6
CONTINUOUS
62
  3
100
AcDbVertex
100
AcDb2dVertex
10
370.240200000000
20
91.242700000000
30
0.0
0
VERTEX
5
520
100
AcDbEntity
8
1-8
6
CONTINUOUS
62
  3
100
AcDbVertex
100
AcDb2dVertex
10
370.240200000000
20
96.242700000000
30
0.0
0
SEQEND
5
521
100
AcDbEntity
8
1-8
0
POLYLINE
5
522
100
AcDbEntity
8
1-8
6
CONTINUOUS
62
  3
100
AcDb2dPolyline
66
1
10
0.0
20
0.0
30
0.0
70
0
0
VERTEX
5
523
100
AcDbEntity
8
1-8
6
CONTINUOUS
62
  3
100
AcDbVertex
100
AcDb2dVertex
10
345.240200000000
20
136.242700000000
30
0.0
0
VERTEX
5
524
100
AcDbEntity
8
1-8
6
CONTINUOUS
62
  3
100
AcDbVertex
100
AcDb2dVertex
10
395.240100000000
20
136.242700000000
30
0.0
0
VERTEX
5
525
100
AcDbEntity
8
1-8
6
CONTINUOUS
62
  3
100
AcDbVertex
100
AcDb2dVertex
10
395.240100000000
20
131.242700000000
30
0.0
0
VERTEX
5
526
100
AcDbEntity
8
1-8
6
CONTINUOUS
62
  3
100
AcDbVertex
100
AcDb2dVertex
10
345.240200000000
20
131.242700000000
30
0.0
0
VERTEX
5
527
100
AcDbEntity
8
1-8
6
CONTINUOUS
62
  3
100
AcDbVertex
100
AcDb2dVertex
10
345.240200000000
20
136.242700000000
30
0.0
0
SEQEND
5
528
100
AcDbEntity
8
1-8
0
POLYLINE
5
529
100
AcDbEntity
8
1-8
6
CONTINUOUS
62
  3
100
AcDb2dPolyline
66
1
10
0.0
20
0.0
30
0.0
70
0
0
VERTEX
5
52a
100
AcDbEntity
8
1-8
6
CONTINUOUS
62
  3
100
AcDbVertex
100
AcDb2dVertex
10
370.240200000000
20
131.242700000000
30
0.0
0
VERTEX
5
52b
100
AcDbEntity
8
1-8
6
CONTINUOUS
62
  3
100
AcDbVertex
100
AcDb2dVertex
10
395.240100000000
20
131.242700000000
30
0.0
0
VERTEX
5
52c
100
AcDbEntity
8
1-8
6
CONTINUOUS
62
  3
100
AcDbVertex
100
AcDb2dVertex
10
395.240100000000
20
126.242700000000
30
0.0
0
VERTEX
5
52d
100
AcDbEntity
8
1-8
6
CONTINUOUS
62
  3
100
AcDbVertex
100
AcDb2dVertex
10
370.240200000000
20
126.242700000000
30
0.0
0
VERTEX
5
52e
100
AcDbEntity
8
1-8
6
CONTINUOUS
62
  3
100
AcDbVertex
100
AcDb2dVertex
10
370.240200000000
20
131.242700000000
30
0.0
0
SEQEND
5
52f
100
AcDbEntity
8
1-8
0
LINE
5
530
100
AcDbEntity
8
1-8
6
CONTINUOUS
62
3
100
AcDbLine
10
401.000000000000
20
272.000000000000
30
0.0
11
401.000000000000
21
195.500100000000
31
0.0
0
LINE
5
531
100
AcDbEntity
8
1-8
6
CONTINUOUS
62
3
100
AcDbLine
10
293.000000000000
20
272.000000000000
30
0.0
11
293.000000000000
21
195.500100000000
31
0.0
0
LINE
5
532
100
AcDbEntity
8
1-8
6
CONTINUOUS
62
3
100
AcDbLine
10
311.000000000000
20
272.000000000000
30
0.0
11
311.000000000000
21
195.500100000000
31
0.0
0
LINE
5
533
100
AcDbEntity
8
1-8
6
CONTINUOUS
62
3
100
AcDbLine
10
320.000000000000
20
272.000000000000
30
0.0
11
320.000000000000
21
195.500100000000
31
0.0
0
LINE
5
534
100
AcDbEntity
8
1-8
6
CONTINUOUS
62
3
100
AcDbLine
10
338.000000000000
20
272.000000000000
30
0.0
11
338.000000000000
21
195.500100000000
31
0.0
0
LINE
5
535
100
AcDbEntity
8
1-8
6
CONTINUOUS
62
3
100
AcDbLine
10
293.000000000000
20
272.000000000000
30
0.0
11
401.000000000000
21
272.000000000000
31
0.0
0
LINE
5
536
100
AcDbEntity
8
1-8
6
CONTINUOUS
62
3
100
AcDbLine
10
293.000000000000
20
267.500000000000
30
0.0
11
401.000000000000
21
267.500000000000
31
0.0
0
LINE
5
537
100
AcDbEntity
8
1-8
6
CONTINUOUS
62
3
100
AcDbLine
10
293.000000000000
20
263.000000000000
30
0.0
11
401.000000000000
21
263.000000000000
31
0.0
0
LINE
5
538
100
AcDbEntity
8
1-8
6
CONTINUOUS
62
3
100
AcDbLine
10
293.000000000000
20
258.500000000000
30
0.0
11
401.000000000000
21
258.500000000000
31
0.0
0
LINE
5
539
100
AcDbEntity
8
1-8
6
CONTINUOUS
62
3
100
AcDbLine
10
293.000000000000
20
254.000000000000
30
0.0
11
401.000000000000
21
254.000000000000
31
0.0
0
LINE
5
53a
100
AcDbEntity
8
1-8
6
CONTINUOUS
62
3
100
AcDbLine
10
293.000000000000
20
249.500000000000
30
0.0
11
401.000000000000
21
249.500000000000
31
0.0
0
LINE
5
53b
100
AcDbEntity
8
1-8
6
CONTINUOUS
62
3
100
AcDbLine
10
293.000000000000
20
245.000000000000
30
0.0
11
401.000000000000
21
245.000000000000
31
0.0
0
LINE
5
53c
100
AcDbEntity
8
1-8
6
CONTINUOUS
62
3
100
AcDbLine
10
293.000000000000
20
240.500000000000
30
0.0
11
401.000000000000
21
240.500000000000
31
0.0
0
LINE
5
53d
100
AcDbEntity
8
1-8
6
CONTINUOUS
62
3
100
AcDbLine
10
293.000000000000
20
236.000000000000
30
0.0
11
401.000000000000
21
236.000000000000
31
0.0
0
LINE
5
53e
100
AcDbEntity
8
1-8
6
CONTINUOUS
62
3
100
AcDbLine
10
293.000000000000
20
231.500000000000
30
0.0
11
401.000000000000
21
231.500000000000
31
0.0
0
LINE
5
53f
100
AcDbEntity
8
1-8
6
CONTINUOUS
62
3
100
AcDbLine
10
293.000000000000
20
227.000000000000
30
0.0
11
401.000000000000
21
227.000000000000
31
0.0
0
LINE
5
540
100
AcDbEntity
8
1-8
6
CONTINUOUS
62
3
100
AcDbLine
10
293.000000000000
20
222.500000000000
30
0.0
11
401.000000000000
21
222.500000000000
31
0.0
0
LINE
5
541
100
AcDbEntity
8
1-8
6
CONTINUOUS
62
3
100
AcDbLine
10
293.000000000000
20
218.000000000000
30
0.0
11
401.000000000000
21
218.000000000000
31
0.0
0
LINE
5
542
100
AcDbEntity
8
1-8
6
CONTINUOUS
62
3
100
AcDbLine
10
293.000000000000
20
213.500000000000
30
0.0
11
401.000000000000
21
213.500000000000
31
0.0
0
LINE
5
543
100
AcDbEntity
8
1-8
6
CONTINUOUS
62
3
100
AcDbLine
10
347.000000000000
20
272.000000000000
30
0.0
11
347.000000000000
21
195.500100000000
31
0.0
0
LINE
5
544
100
AcDbEntity
8
1-8
6
CONTINUOUS
62
3
100
AcDbLine
10
302.000000000000
20
272.000000000000
30
0.0
11
302.000000000000
21
195.500100000000
31
0.0
0
LINE
5
545
100
AcDbEntity
8
1-8
6
CONTINUOUS
62
3
100
AcDbLine
10
356.000000000000
20
272.000000000000
30
0.0
11
356.000000000000
21
195.500100000000
31
0.0
0
LINE
5
546
100
AcDbEntity
8
1-8
6
CONTINUOUS
62
3
100
AcDbLine
10
365.000000000000
20
272.000000000000
30
0.0
11
365.000000000000
21
195.500100000000
31
0.0
0
LINE
5
547
100
AcDbEntity
8
1-8
6
CONTINUOUS
62
3
100
AcDbLine
10
293.000000000000
20
209.000000000000
30
0.0
11
401.000000000000
21
209.000000000000
31
0.0
0
LINE
5
548
100
AcDbEntity
8
1-8
6
CONTINUOUS
62
3
100
AcDbLine
10
293.000000000000
20
204.500000000000
30
0.0
11
401.000000000000
21
204.500000000000
31
0.0
0
LINE
5
549
100
AcDbEntity
8
1-8
6
CONTINUOUS
62
3
100
AcDbLine
10
293.000000000000
20
200.000100000000
30
0.0
11
401.000000000000
21
200.000100000000
31
0.0
0
LINE
5
54a
100
AcDbEntity
8
1-8
6
CONTINUOUS
62
3
100
AcDbLine
10
365.000000000000
20
195.500100000000
30
0.0
11
293.000000000000
21
195.500100000000
31
0.0
0
POLYLINE
5
54b
100
AcDbEntity
8
1-8
6
CONTINUOUS
62
  3
100
AcDb2dPolyline
66
1
10
0.0
20
0.0
30
0.0
70
0
0
VERTEX
5
54c
100
AcDbEntity
8
1-8
6
CONTINUOUS
62
  3
100
AcDbVertex
100
AcDb2dVertex
10
365.000000000000
20
195.500100000000
30
0.0
0
VERTEX
5
54d
100
AcDbEntity
8
1-8
6
CONTINUOUS
62
  3
100
AcDbVertex
100
AcDb2dVertex
10
293.000000000000
20
195.500100000000
30
0.0
0
VERTEX
5
54e
100
AcDbEntity
8
1-8
6
CONTINUOUS
62
  3
100
AcDbVertex
100
AcDb2dVertex
10
401.000000000000
20
195.500100000000
30
0.0
0
SEQEND
5
54f
100
AcDbEntity
8
1-8
0
LINE
5
550
100
AcDbEntity
8
1-8
6
CONTINUOUS
62
3
100
AcDbLine
10
374.000000000000
20
272.000000000000
30
0.0
11
374.000000000000
21
195.500100000000
31
0.0
0
LINE
5
551
100
AcDbEntity
8
1-8
6
CONTINUOUS
62
3
100
AcDbLine
10
329.000000000000
20
272.000000000000
30
0.0
11
329.000000000000
21
195.500100000000
31
0.0
0
LINE
5
552
100
AcDbEntity
8
1-8
6
CONTINUOUS
62
3
100
AcDbLine
10
383.000000000000
20
272.000000000000
30
0.0
11
383.000000000000
21
195.500100000000
31
0.0
0
LINE
5
553
100
AcDbEntity
8
1-8
6
CONTINUOUS
62
3
100
AcDbLine
10
392.000000000000
20
272.000000000000
30
0.0
11
392.000000000000
21
195.500100000000
31
0.0
0
TEXT
5
554
100
AcDbEntity
8
1-0
62
7
370
-3
100
AcDbText
10
175.818
20
28.167
30
0.0
40
2.720
1
　　　　　青色（マンセル値１０Ｂ５／１０）と致します。
41
0.856
50
0.000
100
AcDbText
0
TEXT
5
555
100
AcDbEntity
8
1-0
62
7
370
-3
100
AcDbText
10
175.818
20
22.167
30
0.0
40
2.720
1
　　　　　ＳＵＳ部は、酸洗い後、水洗い処理と致します。
41
0.856
50
0.000
100
AcDbText
0
TEXT
5
556
100
AcDbEntity
8
1-0
62
7
370
-3
100
AcDbText
10
175.818
20
34.020
30
0.0
40
2.720
1
注記　１．塗装　下地処理後、ポリウレタン樹脂塗料とし色調は
41
0.856
50
0.000
100
AcDbText
0
TEXT
5
557
100
AcDbEntity
8
0-0
62
7
370
-3
100
AcDbText
10
312.879
20
278.876
30
0.0
40
2.719
1
記号
41
0.856
50
0.000
100
AcDbText
0
TEXT
5
558
100
AcDbEntity
8
0-0
62
7
370
-3
100
AcDbText
10
328.129
20
278.876
30
0.0
40
2.719
1
修　　　　　　　正
41
0.856
50
0.000
100
AcDbText
0
TEXT
5
559
100
AcDbEntity
8
0-0
62
7
370
-3
100
AcDbText
10
368.879
20
278.876
30
0.0
40
2.719
1
日　　付
41
0.856
50
0.000
100
AcDbText
0
TEXT
5
55a
100
AcDbEntity
8
0-0
62
7
370
-3
100
AcDbText
10
388.629
20
278.876
30
0.0
40
2.719
1
担　　当
41
0.856
50
0.000
100
AcDbText
0
TEXT
5
55b
100
AcDbEntity
8
1-8
62
7
370
-3
100
AcDbText
10
324.668
20
130.237
30
0.0
40
2.719
1
部　品　名
41
0.856
50
0.000
100
AcDbText
0
TEXT
5
55c
100
AcDbEntity
8
1-8
62
7
370
-3
100
AcDbText
10
324.791
20
122.696
30
0.0
40
2.719
1
扉　　　体
41
0.856
50
0.000
100
AcDbText
0
TEXT
5
55d
100
AcDbEntity
8
1-8
62
7
370
-3
100
AcDbText
10
322.111
20
117.687
30
0.0
40
2.585
1
水　密　ゴ　ム
41
0.856
50
0.000
100
AcDbText
0
TEXT
5
55e
100
AcDbEntity
8
1-8
62
7
370
-3
100
AcDbText
10
324.791
20
112.696
30
0.0
40
2.719
1
戸　当　り
41
0.856
50
0.000
100
AcDbText
0
TEXT
5
55f
100
AcDbEntity
8
1-8
62
7
370
-3
100
AcDbText
10
324.791
20
87.696
30
0.0
40
2.719
1
ク　サ　ビ
41
0.856
50
0.000
100
AcDbText
0
MTEXT
5
560
100
AcDbEntity
8
1-8
62
7
370
-3
100
AcDbMText
10
322.368
20
82.394
30
0.0
40
2.568
41
0.000
71
7
72
1
1
\W0.972;ボルト{\W0.700;･}ナット
7
STANDARD
11
1.00000
21
0.00000
31
0.0
0
TEXT
5
561
100
AcDbEntity
8
1-8
62
7
370
-3
100
AcDbText
10
349.369
20
122.696
30
0.0
40
2.719
1
ＳＳ４００
41
0.856
50
0.000
100
AcDbText
0
TEXT
5
562
100
AcDbEntity
8
1-8
62
7
370
-3
100
AcDbText
10
349.369
20
112.696
30
0.0
40
2.719
1
ＳＳ４００
41
0.856
50
0.000
100
AcDbText
0
TEXT
5
563
100
AcDbEntity
8
1-8
62
7
370
-3
100
AcDbText
10
347.110
20
140.906
30
0.0
40
3.626
1
標準材質表
41
0.856
50
0.000
100
AcDbText
0
TEXT
5
564
100
AcDbEntity
8
1-8
62
7
370
-3
100
AcDbText
10
362.168
20
132.762
30
0.0
40
2.719
1
材　　　質
41
0.856
50
0.000
100
AcDbText
0
TEXT
5
565
100
AcDbEntity
8
1-8
62
7
370
-3
100
AcDbText
10
354.888
20
117.550
30
0.0
40
2.719
1
ＣＲ
41
0.856
50
0.000
100
AcDbText
0
TEXT
5
566
100
AcDbEntity
8
1-8
62
7
370
-3
100
AcDbText
10
321.668
20
77.694
30
0.0
40
2.693
1
オールアンカー
41
0.856
50
0.000
100
AcDbText
0
TEXT
5
567
100
AcDbEntity
8
1-8
62
7
370
-3
100
AcDbText
10
324.868
20
107.694
30
0.0
40
2.693
1
スピンドル
41
0.856
50
0.000
100
AcDbText
0
TEXT
5
568
100
AcDbEntity
8
1-8
62
7
370
-3
100
AcDbText
10
348.425
20
107.550
30
0.0
40
2.719
1
ＳＵＳ３０４
41
0.856
50
0.000
100
AcDbText
0
TEXT
5
569
100
AcDbEntity
8
1-8
62
7
370
-3
100
AcDbText
10
323.268
20
97.694
30
0.0
40
2.693
1
平巻式巻上機
41
0.856
50
0.000
100
AcDbText
0
TEXT
5
56a
100
AcDbEntity
8
1-8
62
7
370
-3
100
AcDbText
10
350.041
20
97.550
30
0.0
40
2.719
1
ＦＣ２００
41
0.856
50
0.000
100
AcDbText
0
TEXT
5
56b
100
AcDbEntity
8
1-8
62
7
370
-3
100
AcDbText
10
322.603
20
102.660
30
0.0
40
2.154
1
スピンドルカバー
41
0.856
50
0.000
100
AcDbText
0
TEXT
5
56c
100
AcDbEntity
8
1-8
62
7
370
-3
100
AcDbText
10
353.272
20
102.550
30
0.0
40
2.719
1
ＳＧＰ
41
0.856
50
0.000
100
AcDbText
0
TEXT
5
56d
100
AcDbEntity
8
1-8
62
7
370
-3
100
AcDbText
10
326.468
20
92.694
30
0.0
40
2.693
1
ハンドル
41
0.856
50
0.000
100
AcDbText
0
TEXT
5
56e
100
AcDbEntity
8
1-8
62
7
370
-3
100
AcDbText
10
350.041
20
92.550
30
0.0
40
2.719
1
ＦＣ２００
41
0.856
50
0.000
100
AcDbText
0
TEXT
5
56f
100
AcDbEntity
8
1-8
62
7
370
-3
100
AcDbText
10
379.888
20
117.550
30
0.0
40
2.719
1
ＣＲ
41
0.856
50
0.000
100
AcDbText
0
TEXT
5
570
100
AcDbEntity
8
1-8
62
7
370
-3
100
AcDbText
10
373.425
20
107.550
30
0.0
40
2.719
1
ＳＵＳ３０４
41
0.856
50
0.000
100
AcDbText
0
TEXT
5
571
100
AcDbEntity
8
1-8
62
7
370
-3
100
AcDbText
10
375.041
20
97.550
30
0.0
40
2.719
1
ＦＣ２００
41
0.856
50
0.000
100
AcDbText
0
TEXT
5
572
100
AcDbEntity
8
1-8
62
7
370
-3
100
AcDbText
10
378.272
20
102.550
30
0.0
40
2.719
1
ＳＧＰ
41
0.856
50
0.000
100
AcDbText
0
TEXT
5
573
100
AcDbEntity
8
1-8
62
7
370
-3
100
AcDbText
10
375.041
20
92.550
30
0.0
40
2.719
1
ＦＣ２００
41
0.856
50
0.000
100
AcDbText
0
TEXT
5
574
100
AcDbEntity
8
1-8
62
7
370
-3
100
AcDbText
10
373.425
20
122.550
30
0.0
40
2.719
1
ＳＵＳ３０４
41
0.856
50
0.000
100
AcDbText
0
TEXT
5
575
100
AcDbEntity
8
1-8
62
7
370
-3
100
AcDbText
10
373.425
20
112.550
30
0.0
40
2.719
1
ＳＵＳ３０４
41
0.856
50
0.000
100
AcDbText
0
TEXT
5
576
100
AcDbEntity
8
1-8
62
7
370
-3
100
AcDbText
10
373.425
20
87.550
30
0.0
40
2.719
1
ＳＵＳ３０４
41
0.856
50
0.000
100
AcDbText
0
TEXT
5
577
100
AcDbEntity
8
1-8
62
7
370
-3
100
AcDbText
10
352.949
20
127.775
30
0.0
40
2.719
1
鋼　製
41
0.856
50
0.000
100
AcDbText
0
TEXT
5
578
100
AcDbEntity
8
1-8
62
7
370
-3
100
AcDbText
10
374.668
20
127.852
30
0.0
40
2.719
1
ステンレス
41
0.856
50
0.000
100
AcDbText
0
TEXT
5
579
100
AcDbEntity
8
1-8
62
7
370
-3
100
AcDbText
10
293.989
20
268.573
30
0.0
40
3.059
1
Ｎｏ
41
0.856
50
0.000
100
AcDbText
0
TEXT
5
57a
100
AcDbEntity
8
1-8
62
7
370
-3
100
AcDbText
10
304.958
20
268.573
30
0.0
40
3.059
1
Ａ
41
0.856
50
0.000
100
AcDbText
0
TEXT
5
57b
100
AcDbEntity
8
1-8
62
7
370
-3
100
AcDbText
10
313.958
20
268.573
30
0.0
40
3.059
1
Ｂ
41
0.856
50
0.000
100
AcDbText
0
TEXT
5
57c
100
AcDbEntity
8
1-8
62
7
370
-3
100
AcDbText
10
322.958
20
268.573
30
0.0
40
3.059
1
Ｃ
41
0.856
50
0.000
100
AcDbText
0
TEXT
5
57d
100
AcDbEntity
8
1-8
62
7
370
-3
100
AcDbText
10
340.958
20
268.573
30
0.0
40
3.059
1
Ｅ
41
0.856
50
0.000
100
AcDbText
0
TEXT
5
57e
100
AcDbEntity
8
1-8
62
7
370
-3
100
AcDbText
10
295.958
20
264.073
30
0.0
40
3.059
1
１
41
0.856
50
0.000
100
AcDbText
0
TEXT
5
57f
100
AcDbEntity
8
1-8
62
7
370
-3
100
AcDbText
10
295.958
20
259.573
30
0.0
40
3.059
1
２
41
0.856
50
0.000
100
AcDbText
0
TEXT
5
580
100
AcDbEntity
8
1-8
62
7
370
-3
100
AcDbText
10
295.958
20
255.073
30
0.0
40
3.059
1
３
41
0.856
50
0.000
100
AcDbText
0
TEXT
5
581
100
AcDbEntity
8
1-8
62
7
370
-3
100
AcDbText
10
295.958
20
250.573
30
0.0
40
3.059
1
４
41
0.856
50
0.000
100
AcDbText
0
TEXT
5
582
100
AcDbEntity
8
1-8
62
7
370
-3
100
AcDbText
10
295.958
20
246.073
30
0.0
40
3.059
1
５
41
0.856
50
0.000
100
AcDbText
0
TEXT
5
583
100
AcDbEntity
8
1-8
62
7
370
-3
100
AcDbText
10
295.958
20
241.573
30
0.0
40
3.059
1
６
41
0.856
50
0.000
100
AcDbText
0
TEXT
5
584
100
AcDbEntity
8
1-8
62
7
370
-3
100
AcDbText
10
295.958
20
237.073
30
0.0
40
3.059
1
７
41
0.856
50
0.000
100
AcDbText
0
TEXT
5
585
100
AcDbEntity
8
1-8
62
7
370
-3
100
AcDbText
10
295.958
20
232.573
30
0.0
40
3.059
1
８
41
0.856
50
0.000
100
AcDbText
0
TEXT
5
586
100
AcDbEntity
8
1-8
62
7
370
-3
100
AcDbText
10
295.958
20
228.073
30
0.0
40
3.059
1
９
41
0.856
50
0.000
100
AcDbText
0
TEXT
5
587
100
AcDbEntity
8
1-8
62
7
370
-3
100
AcDbText
10
295.817
20
223.573
30
0.0
40
3.059
1
10
41
0.725
50
0.000
100
AcDbText
0
TEXT
5
588
100
AcDbEntity
8
1-8
62
7
370
-3
100
AcDbText
10
295.817
20
219.073
30
0.0
40
3.059
1
11
41
0.860
50
0.000
100
AcDbText
0
TEXT
5
589
100
AcDbEntity
8
1-8
62
7
370
-3
100
AcDbText
10
295.817
20
214.573
30
0.0
40
3.059
1
12
41
0.600
50
0.000
100
AcDbText
0
TEXT
5
58a
100
AcDbEntity
8
1-8
62
4
370
-3
100
AcDbText
10
304.512
20
264.269
30
0.0
40
2.549
1
300
41
0.585
50
0.000
100
AcDbText
0
TEXT
5
58b
100
AcDbEntity
8
1-8
62
4
370
-3
100
AcDbText
10
304.512
20
259.769
30
0.0
40
2.549
1
300
41
0.585
50
0.000
100
AcDbText
0
TEXT
5
58c
100
AcDbEntity
8
1-8
62
4
370
-3
100
AcDbText
10
304.512
20
255.269
30
0.0
40
2.549
1
400
41
0.598
50
0.000
100
AcDbText
0
TEXT
5
58d
100
AcDbEntity
8
1-8
62
4
370
-3
100
AcDbText
10
304.512
20
250.769
30
0.0
40
2.549
1
400
41
0.598
50
0.000
100
AcDbText
0
TEXT
5
58e
100
AcDbEntity
8
1-8
62
4
370
-3
100
AcDbText
10
304.512
20
246.269
30
0.0
40
2.549
1
500
41
0.578
50
0.000
100
AcDbText
0
TEXT
5
58f
100
AcDbEntity
8
1-8
62
4
370
-3
100
AcDbText
10
304.512
20
241.769
30
0.0
40
2.549
1
500
41
0.578
50
0.000
100
AcDbText
0
TEXT
5
590
100
AcDbEntity
8
1-8
62
4
370
-3
100
AcDbText
10
304.512
20
237.269
30
0.0
40
2.549
1
600
41
0.580
50
0.000
100
AcDbText
0
TEXT
5
591
100
AcDbEntity
8
1-8
62
4
370
-3
100
AcDbText
10
304.512
20
232.769
30
0.0
40
2.549
1
600
41
0.580
50
0.000
100
AcDbText
0
TEXT
5
592
100
AcDbEntity
8
1-8
62
4
370
-3
100
AcDbText
10
304.512
20
228.269
30
0.0
40
2.549
1
700
41
0.596
50
0.000
100
AcDbText
0
TEXT
5
593
100
AcDbEntity
8
1-8
62
4
370
-3
100
AcDbText
10
304.512
20
223.769
30
0.0
40
2.549
1
700
41
0.596
50
0.000
100
AcDbText
0
TEXT
5
594
100
AcDbEntity
8
1-8
62
4
370
-3
100
AcDbText
10
304.512
20
219.269
30
0.0
40
2.549
1
800
41
0.575
50
0.000
100
AcDbText
0
TEXT
5
595
100
AcDbEntity
8
1-8
62
4
370
-3
100
AcDbText
10
304.512
20
214.769
30
0.0
40
2.549
1
800
41
0.575
50
0.000
100
AcDbText
0
TEXT
5
596
100
AcDbEntity
8
1-8
62
4
370
-3
100
AcDbText
10
313.512
20
264.269
30
0.0
40
2.549
1
200
41
0.560
50
0.000
100
AcDbText
0
TEXT
5
597
100
AcDbEntity
8
1-8
62
4
370
-3
100
AcDbText
10
313.512
20
259.769
30
0.0
40
2.549
1
300
41
0.585
50
0.000
100
AcDbText
0
TEXT
5
598
100
AcDbEntity
8
1-8
62
4
370
-3
100
AcDbText
10
313.512
20
250.769
30
0.0
40
2.549
1
400
41
0.598
50
0.000
100
AcDbText
0
TEXT
5
599
100
AcDbEntity
8
1-8
62
4
370
-3
100
AcDbText
10
313.512
20
246.269
30
0.0
40
2.549
1
300
41
0.585
50
0.000
100
AcDbText
0
TEXT
5
59a
100
AcDbEntity
8
1-8
62
4
370
-3
100
AcDbText
10
313.512
20
241.769
30
0.0
40
2.549
1
500
41
0.578
50
0.000
100
AcDbText
0
TEXT
5
59b
100
AcDbEntity
8
1-8
62
4
370
-3
100
AcDbText
10
313.512
20
237.269
30
0.0
40
2.549
1
400
41
0.598
50
0.000
100
AcDbText
0
TEXT
5
59c
100
AcDbEntity
8
1-8
62
4
370
-3
100
AcDbText
10
313.512
20
232.769
30
0.0
40
2.549
1
600
41
0.580
50
0.000
100
AcDbText
0
TEXT
5
59d
100
AcDbEntity
8
1-8
62
4
370
-3
100
AcDbText
10
313.512
20
228.269
30
0.0
40
2.549
1
500
41
0.578
50
0.000
100
AcDbText
0
TEXT
5
59e
100
AcDbEntity
8
1-8
62
4
370
-3
100
AcDbText
10
313.512
20
223.769
30
0.0
40
2.549
1
700
41
0.596
50
0.000
100
AcDbText
0
TEXT
5
59f
100
AcDbEntity
8
1-8
62
4
370
-3
100
AcDbText
10
313.512
20
219.269
30
0.0
40
2.549
1
500
41
0.578
50
0.000
100
AcDbText
0
TEXT
5
5a0
100
AcDbEntity
8
1-8
62
4
370
-3
100
AcDbText
10
313.512
20
214.769
30
0.0
40
2.549
1
800
41
0.575
50
0.000
100
AcDbText
0
TEXT
5
5a1
100
AcDbEntity
8
1-8
62
4
370
-3
100
AcDbText
10
322.512
20
264.269
30
0.0
40
2.549
1
410
41
0.654
50
0.000
100
AcDbText
0
TEXT
5
5a2
100
AcDbEntity
8
1-8
62
4
370
-3
100
AcDbText
10
322.512
20
259.769
30
0.0
40
2.549
1
410
41
0.654
50
0.000
100
AcDbText
0
TEXT
5
5a3
100
AcDbEntity
8
1-8
62
4
370
-3
100
AcDbText
10
322.512
20
255.269
30
0.0
40
2.549
1
510
41
0.631
50
0.000
100
AcDbText
0
TEXT
5
5a4
100
AcDbEntity
8
1-8
62
4
370
-3
100
AcDbText
10
322.512
20
250.769
30
0.0
40
2.549
1
510
41
0.631
50
0.000
100
AcDbText
0
TEXT
5
5a5
100
AcDbEntity
8
1-8
62
4
370
-3
100
AcDbText
10
322.512
20
246.269
30
0.0
40
2.549
1
610
41
0.633
50
0.000
100
AcDbText
0
TEXT
5
5a6
100
AcDbEntity
8
1-8
62
4
370
-3
100
AcDbText
10
322.512
20
241.769
30
0.0
40
2.549
1
610
41
0.633
50
0.000
100
AcDbText
0
TEXT
5
5a7
100
AcDbEntity
8
1-8
62
4
370
-3
100
AcDbText
10
322.512
20
237.269
30
0.0
40
2.549
1
710
41
0.652
50
0.000
100
AcDbText
0
TEXT
5
5a8
100
AcDbEntity
8
1-8
62
4
370
-3
100
AcDbText
10
322.512
20
232.769
30
0.0
40
2.549
1
710
41
0.652
50
0.000
100
AcDbText
0
TEXT
5
5a9
100
AcDbEntity
8
1-8
62
4
370
-3
100
AcDbText
10
322.512
20
228.269
30
0.0
40
2.549
1
810
41
0.627
50
0.000
100
AcDbText
0
TEXT
5
5aa
100
AcDbEntity
8
1-8
62
4
370
-3
100
AcDbText
10
322.512
20
223.769
30
0.0
40
2.549
1
810
41
0.627
50
0.000
100
AcDbText
0
TEXT
5
5ab
100
AcDbEntity
8
1-8
62
4
370
-3
100
AcDbText
10
322.512
20
219.269
30
0.0
40
2.549
1
910
41
0.654
50
0.000
100
AcDbText
0
TEXT
5
5ac
100
AcDbEntity
8
1-8
62
4
370
-3
100
AcDbText
10
322.512
20
214.769
30
0.0
40
2.549
1
910
41
0.654
50
0.000
100
AcDbText
0
TEXT
5
5ad
100
AcDbEntity
8
1-8
62
4
370
-3
100
AcDbText
10
313.512
20
255.269
30
0.0
40
2.549
1
250
41
0.521
50
0.000
100
AcDbText
0
TEXT
5
5ae
100
AcDbEntity
8
1-8
62
4
370
-3
100
AcDbText
10
331.512
20
264.269
30
0.0
40
2.549
1
440
41
0.571
50
0.000
100
AcDbText
0
TEXT
5
5af
100
AcDbEntity
8
1-8
62
4
370
-3
100
AcDbText
10
331.512
20
259.769
30
0.0
40
2.549
1
440
41
0.571
50
0.000
100
AcDbText
0
TEXT
5
5b0
100
AcDbEntity
8
1-8
62
4
370
-3
100
AcDbText
10
331.512
20
255.269
30
0.0
40
2.549
1
540
41
0.554
50
0.000
100
AcDbText
0
TEXT
5
5b1
100
AcDbEntity
8
1-8
62
4
370
-3
100
AcDbText
10
331.512
20
250.769
30
0.0
40
2.549
1
540
41
0.554
50
0.000
100
AcDbText
0
TEXT
5
5b2
100
AcDbEntity
8
1-8
62
4
370
-3
100
AcDbText
10
331.512
20
246.269
30
0.0
40
2.549
1
640
41
0.555
50
0.000
100
AcDbText
0
TEXT
5
5b3
100
AcDbEntity
8
1-8
62
4
370
-3
100
AcDbText
10
331.512
20
241.769
30
0.0
40
2.549
1
640
41
0.555
50
0.000
100
AcDbText
0
TEXT
5
5b4
100
AcDbEntity
8
1-8
62
4
370
-3
100
AcDbText
10
331.512
20
237.269
30
0.0
40
2.549
1
740
41
0.569
50
0.000
100
AcDbText
0
TEXT
5
5b5
100
AcDbEntity
8
1-8
62
4
370
-3
100
AcDbText
10
331.512
20
232.769
30
0.0
40
2.549
1
740
41
0.569
50
0.000
100
AcDbText
0
TEXT
5
5b6
100
AcDbEntity
8
1-8
62
4
370
-3
100
AcDbText
10
331.512
20
228.269
30
0.0
40
2.549
1
840
41
0.550
50
0.000
100
AcDbText
0
TEXT
5
5b7
100
AcDbEntity
8
1-8
62
4
370
-3
100
AcDbText
10
331.512
20
223.769
30
0.0
40
2.549
1
840
41
0.550
50
0.000
100
AcDbText
0
TEXT
5
5b8
100
AcDbEntity
8
1-8
62
4
370
-3
100
AcDbText
10
331.512
20
219.269
30
0.0
40
2.549
1
940
41
0.571
50
0.000
100
AcDbText
0
TEXT
5
5b9
100
AcDbEntity
8
1-8
62
4
370
-3
100
AcDbText
10
331.512
20
214.769
30
0.0
40
2.549
1
940
41
0.571
50
0.000
100
AcDbText
0
TEXT
5
5ba
100
AcDbEntity
8
1-8
62
7
370
-3
100
AcDbText
10
349.958
20
268.573
30
0.0
40
3.059
1
Ｆ
41
0.856
50
0.000
100
AcDbText
0
TEXT
5
5bb
100
AcDbEntity
8
1-8
62
7
370
-3
100
AcDbText
10
358.958
20
268.573
30
0.0
40
3.059
1
Ｇ
41
0.856
50
0.000
100
AcDbText
0
TEXT
5
5bc
100
AcDbEntity
8
1-8
62
4
370
-3
100
AcDbText
10
348.809
20
264.269
30
0.0
40
2.549
1
----
41
0.525
50
0.000
100
AcDbText
0
TEXT
5
5bd
100
AcDbEntity
8
1-8
62
4
370
-3
100
AcDbText
10
348.809
20
259.769
30
0.0
40
2.549
1
----
41
0.525
50
0.000
100
AcDbText
0
TEXT
5
5be
100
AcDbEntity
8
1-8
62
4
370
-3
100
AcDbText
10
348.809
20
255.269
30
0.0
40
2.549
1
----
41
0.525
50
0.000
100
AcDbText
0
TEXT
5
5bf
100
AcDbEntity
8
1-8
62
4
370
-3
100
AcDbText
10
348.809
20
250.769
30
0.0
40
2.549
1
----
41
0.525
50
0.000
100
AcDbText
0
TEXT
5
5c0
100
AcDbEntity
8
1-8
62
4
370
-3
100
AcDbText
10
348.809
20
246.269
30
0.0
40
2.549
1
----
41
0.525
50
0.000
100
AcDbText
0
TEXT
5
5c1
100
AcDbEntity
8
1-8
62
4
370
-3
100
AcDbText
10
348.809
20
241.769
30
0.0
40
2.549
1
----
41
0.525
50
0.000
100
AcDbText
0
TEXT
5
5c2
100
AcDbEntity
8
1-8
62
4
370
-3
100
AcDbText
10
348.809
20
237.269
30
0.0
40
2.549
1
----
41
0.525
50
0.000
100
AcDbText
0
TEXT
5
5c3
100
AcDbEntity
8
1-8
62
4
370
-3
100
AcDbText
10
348.809
20
232.769
30
0.0
40
2.549
1
----
41
0.525
50
0.000
100
AcDbText
0
TEXT
5
5c4
100
AcDbEntity
8
1-8
62
4
370
-3
100
AcDbText
10
348.809
20
228.269
30
0.0
40
2.549
1
----
41
0.525
50
0.000
100
AcDbText
0
TEXT
5
5c5
100
AcDbEntity
8
1-8
62
4
370
-3
100
AcDbText
10
348.809
20
223.769
30
0.0
40
2.549
1
----
41
0.525
50
0.000
100
AcDbText
0
TEXT
5
5c6
100
AcDbEntity
8
1-8
62
4
370
-3
100
AcDbText
10
348.809
20
219.269
30
0.0
40
2.549
1
----
41
0.525
50
0.000
100
AcDbText
0
TEXT
5
5c7
100
AcDbEntity
8
1-8
62
4
370
-3
100
AcDbText
10
348.809
20
214.769
30
0.0
40
2.549
1
----
41
0.525
50
0.000
100
AcDbText
0
TEXT
5
5c8
100
AcDbEntity
8
1-8
62
7
370
-3
100
AcDbText
10
295.817
20
210.073
30
0.0
40
3.059
1
13
41
0.645
50
0.000
100
AcDbText
0
TEXT
5
5c9
100
AcDbEntity
8
1-8
62
4
370
-3
100
AcDbText
10
304.512
20
210.269
30
0.0
40
2.549
1
900
41
0.598
50
0.000
100
AcDbText
0
TEXT
5
5ca
100
AcDbEntity
8
1-8
62
4
370
-3
100
AcDbText
10
313.512
20
210.269
30
0.0
40
2.549
1
600
41
0.580
50
0.000
100
AcDbText
0
TEXT
5
5cb
100
AcDbEntity
8
1-8
62
4
370
-3
100
AcDbText
10
321.558
20
210.269
30
0.0
40
2.549
1
1010
41
0.725
50
0.000
100
AcDbText
0
TEXT
5
5cc
100
AcDbEntity
8
1-8
62
4
370
-3
100
AcDbText
10
330.558
20
210.269
30
0.0
40
2.549
1
1040
41
0.647
50
0.000
100
AcDbText
0
TEXT
5
5cd
100
AcDbEntity
8
1-8
62
4
370
-3
100
AcDbText
10
348.809
20
210.269
30
0.0
40
2.549
1
----
41
0.525
50
0.000
100
AcDbText
0
TEXT
5
5ce
100
AcDbEntity
8
1-8
62
7
370
-3
100
AcDbText
10
295.817
20
205.573
30
0.0
40
3.059
1
14
41
0.669
50
0.000
100
AcDbText
0
TEXT
5
5cf
100
AcDbEntity
8
1-8
62
4
370
-3
100
AcDbText
10
304.512
20
205.769
30
0.0
40
2.549
1
900
41
0.598
50
0.000
100
AcDbText
0
TEXT
5
5d0
100
AcDbEntity
8
1-8
62
4
370
-3
100
AcDbText
10
313.512
20
205.769
30
0.0
40
2.549
1
900
41
0.598
50
0.000
100
AcDbText
0
TEXT
5
5d1
100
AcDbEntity
8
1-8
62
4
370
-3
100
AcDbText
10
321.558
20
205.769
30
0.0
40
2.549
1
1010
41
0.725
50
0.000
100
AcDbText
0
TEXT
5
5d2
100
AcDbEntity
8
1-8
62
4
370
-3
100
AcDbText
10
330.558
20
205.769
30
0.0
40
2.549
1
1040
41
0.647
50
0.000
100
AcDbText
0
TEXT
5
5d3
100
AcDbEntity
8
1-8
62
4
370
-3
100
AcDbText
10
348.809
20
205.769
30
0.0
40
2.549
1
----
41
0.525
50
0.000
100
AcDbText
0
TEXT
5
5d4
100
AcDbEntity
8
1-8
62
7
370
-3
100
AcDbText
10
295.817
20
201.073
30
0.0
40
3.059
1
15
41
0.633
50
0.000
100
AcDbText
0
TEXT
5
5d5
100
AcDbEntity
8
1-8
62
4
370
-3
100
AcDbText
10
303.558
20
201.269
30
0.0
40
2.549
1
1000
41
0.672
50
0.000
100
AcDbText
0
TEXT
5
5d6
100
AcDbEntity
8
1-8
62
4
370
-3
100
AcDbText
10
313.512
20
201.269
30
0.0
40
2.549
1
600
41
0.580
50
0.000
100
AcDbText
0
TEXT
5
5d7
100
AcDbEntity
8
1-8
62
4
370
-3
100
AcDbText
10
321.558
20
201.269
30
0.0
40
2.549
1
1110
41
0.787
50
0.000
100
AcDbText
0
TEXT
5
5d8
100
AcDbEntity
8
1-8
62
4
370
-3
100
AcDbText
10
330.558
20
201.269
30
0.0
40
2.549
1
1140
41
0.696
50
0.000
100
AcDbText
0
TEXT
5
5d9
100
AcDbEntity
8
1-8
62
4
370
-3
100
AcDbText
10
348.809
20
201.269
30
0.0
40
2.549
1
----
41
0.525
50
0.000
100
AcDbText
0
TEXT
5
5da
100
AcDbEntity
8
1-8
62
7
370
-3
100
AcDbText
10
295.817
20
196.573
30
0.0
40
3.059
1
16
41
0.636
50
0.000
100
AcDbText
0
TEXT
5
5db
100
AcDbEntity
8
1-8
62
4
370
-3
100
AcDbText
10
303.558
20
196.769
30
0.0
40
2.549
1
1000
41
0.672
50
0.000
100
AcDbText
0
TEXT
5
5dc
100
AcDbEntity
8
1-8
62
4
370
-3
100
AcDbText
10
312.558
20
196.769
30
0.0
40
2.549
1
1000
41
0.672
50
0.000
100
AcDbText
0
TEXT
5
5dd
100
AcDbEntity
8
1-8
62
4
370
-3
100
AcDbText
10
321.558
20
196.769
30
0.0
40
2.549
1
1110
41
0.787
50
0.000
100
AcDbText
0
TEXT
5
5de
100
AcDbEntity
8
1-8
62
4
370
-3
100
AcDbText
10
330.558
20
196.769
30
0.0
40
2.549
1
1140
41
0.696
50
0.000
100
AcDbText
0
TEXT
5
5df
100
AcDbEntity
8
1-8
62
4
370
-3
100
AcDbText
10
348.809
20
196.769
30
0.0
40
2.549
1
----
41
0.525
50
0.000
100
AcDbText
0
MTEXT
5
5e0
100
AcDbEntity
8
1-8
62
4
370
-3
100
AcDbMText
10
329.557
20
189.781
30
0.0
40
2.140
41
0.000
71
7
72
1
1
\W0.972;{\W0.700;[}注意{\W0.700;]}
7
STANDARD
11
1.00000
21
0.00000
31
0.0
0
TEXT
5
5e1
100
AcDbEntity
8
1-8
62
4
370
-3
100
AcDbText
10
329.585
20
186.434
30
0.0
40
2.266
1
・標記以外の寸法も製作できますので御指定下さい。
41
0.856
50
0.000
100
AcDbText
0
TEXT
5
5e2
100
AcDbEntity
8
1-8
62
7
370
-3
100
AcDbText
10
367.958
20
268.573
30
0.0
40
3.059
1
Ｈ
41
0.856
50
0.000
100
AcDbText
0
TEXT
5
5e3
100
AcDbEntity
8
1-8
62
7
370
-3
100
AcDbText
10
376.958
20
268.573
30
0.0
40
3.059
1
φ
41
0.856
50
0.000
100
AcDbText
0
TEXT
5
5e4
100
AcDbEntity
8
1-8
62
4
370
-3
100
AcDbText
10
358.512
20
264.269
30
0.0
40
2.549
1
400
41
0.598
50
0.000
100
AcDbText
0
TEXT
5
5e5
100
AcDbEntity
8
1-8
62
4
370
-3
100
AcDbText
10
376.818
20
264.269
30
0.0
40
2.549
1
32
41
0.487
50
0.000
100
AcDbText
0
TEXT
5
5e6
100
AcDbEntity
8
1-8
62
4
370
-3
100
AcDbText
10
358.512
20
259.769
30
0.0
40
2.549
1
400
41
0.598
50
0.000
100
AcDbText
0
TEXT
5
5e7
100
AcDbEntity
8
1-8
62
4
370
-3
100
AcDbText
10
358.512
20
255.269
30
0.0
40
2.549
1
400
41
0.598
50
0.000
100
AcDbText
0
TEXT
5
5e8
100
AcDbEntity
8
1-8
62
4
370
-3
100
AcDbText
10
358.512
20
250.769
30
0.0
40
2.549
1
400
41
0.598
50
0.000
100
AcDbText
0
TEXT
5
5e9
100
AcDbEntity
8
1-8
62
4
370
-3
100
AcDbText
10
358.512
20
246.269
30
0.0
40
2.549
1
400
41
0.598
50
0.000
100
AcDbText
0
TEXT
5
5ea
100
AcDbEntity
8
1-8
62
4
370
-3
100
AcDbText
10
358.512
20
241.769
30
0.0
40
2.549
1
400
41
0.598
50
0.000
100
AcDbText
0
TEXT
5
5eb
100
AcDbEntity
8
1-8
62
4
370
-3
100
AcDbText
10
358.512
20
237.269
30
0.0
40
2.549
1
400
41
0.598
50
0.000
100
AcDbText
0
TEXT
5
5ec
100
AcDbEntity
8
1-8
62
4
370
-3
100
AcDbText
10
358.512
20
232.769
30
0.0
40
2.549
1
400
41
0.598
50
0.000
100
AcDbText
0
TEXT
5
5ed
100
AcDbEntity
8
1-8
62
4
370
-3
100
AcDbText
10
358.512
20
228.269
30
0.0
40
2.549
1
400
41
0.598
50
0.000
100
AcDbText
0
TEXT
5
5ee
100
AcDbEntity
8
1-8
62
4
370
-3
100
AcDbText
10
358.512
20
223.769
30
0.0
40
2.549
1
400
41
0.598
50
0.000
100
AcDbText
0
TEXT
5
5ef
100
AcDbEntity
8
1-8
62
4
370
-3
100
AcDbText
10
358.512
20
219.269
30
0.0
40
2.549
1
500
41
0.578
50
0.000
100
AcDbText
0
TEXT
5
5f0
100
AcDbEntity
8
1-8
62
4
370
-3
100
AcDbText
10
358.512
20
214.769
30
0.0
40
2.549
1
500
41
0.578
50
0.000
100
AcDbText
0
TEXT
5
5f1
100
AcDbEntity
8
1-8
62
4
370
-3
100
AcDbText
10
358.512
20
210.269
30
0.0
40
2.549
1
500
41
0.578
50
0.000
100
AcDbText
0
TEXT
5
5f2
100
AcDbEntity
8
1-8
62
4
370
-3
100
AcDbText
10
358.512
20
205.769
30
0.0
40
2.549
1
500
41
0.578
50
0.000
100
AcDbText
0
TEXT
5
5f3
100
AcDbEntity
8
1-8
62
4
370
-3
100
AcDbText
10
358.512
20
201.269
30
0.0
40
2.549
1
500
41
0.578
50
0.000
100
AcDbText
0
TEXT
5
5f4
100
AcDbEntity
8
1-8
62
4
370
-3
100
AcDbText
10
358.512
20
196.769
30
0.0
40
2.549
1
500
41
0.578
50
0.000
100
AcDbText
0
TEXT
5
5f5
100
AcDbEntity
8
1-8
62
4
370
-3
100
AcDbText
10
376.818
20
210.269
30
0.0
40
2.549
1
40
41
0.584
50
0.000
100
AcDbText
0
TEXT
5
5f6
100
AcDbEntity
8
1-8
62
4
370
-3
100
AcDbText
10
376.818
20
205.769
30
0.0
40
2.549
1
40
41
0.584
50
0.000
100
AcDbText
0
TEXT
5
5f7
100
AcDbEntity
8
1-8
62
4
370
-3
100
AcDbText
10
376.818
20
201.269
30
0.0
40
2.549
1
40
41
0.584
50
0.000
100
AcDbText
0
TEXT
5
5f8
100
AcDbEntity
8
1-8
62
4
370
-3
100
AcDbText
10
376.818
20
196.769
30
0.0
40
2.549
1
40
41
0.584
50
0.000
100
AcDbText
0
TEXT
5
5f9
100
AcDbEntity
8
1-8
62
4
370
-3
100
AcDbText
10
376.818
20
259.769
30
0.0
40
2.549
1
32
41
0.487
50
0.000
100
AcDbText
0
TEXT
5
5fa
100
AcDbEntity
8
1-8
62
4
370
-3
100
AcDbText
10
376.818
20
255.269
30
0.0
40
2.549
1
32
41
0.487
50
0.000
100
AcDbText
0
TEXT
5
5fb
100
AcDbEntity
8
1-8
62
4
370
-3
100
AcDbText
10
376.818
20
250.769
30
0.0
40
2.549
1
32
41
0.487
50
0.000
100
AcDbText
0
TEXT
5
5fc
100
AcDbEntity
8
1-8
62
4
370
-3
100
AcDbText
10
376.818
20
246.269
30
0.0
40
2.549
1
32
41
0.487
50
0.000
100
AcDbText
0
TEXT
5
5fd
100
AcDbEntity
8
1-8
62
4
370
-3
100
AcDbText
10
376.818
20
241.769
30
0.0
40
2.549
1
32
41
0.487
50
0.000
100
AcDbText
0
TEXT
5
5fe
100
AcDbEntity
8
1-8
62
4
370
-3
100
AcDbText
10
376.818
20
237.269
30
0.0
40
2.549
1
32
41
0.487
50
0.000
100
AcDbText
0
TEXT
5
5ff
100
AcDbEntity
8
1-8
62
4
370
-3
100
AcDbText
10
376.818
20
232.769
30
0.0
40
2.549
1
32
41
0.487
50
0.000
100
AcDbText
0
TEXT
5
600
100
AcDbEntity
8
1-8
62
4
370
-3
100
AcDbText
10
376.818
20
228.269
30
0.0
40
2.549
1
32
41
0.487
50
0.000
100
AcDbText
0
TEXT
5
601
100
AcDbEntity
8
1-8
62
4
370
-3
100
AcDbText
10
376.818
20
223.769
30
0.0
40
2.549
1
32
41
0.487
50
0.000
100
AcDbText
0
TEXT
5
602
100
AcDbEntity
8
1-8
62
4
370
-3
100
AcDbText
10
376.818
20
219.269
30
0.0
40
2.549
1
40
41
0.584
50
0.000
100
AcDbText
0
TEXT
5
603
100
AcDbEntity
8
1-8
62
4
370
-3
100
AcDbText
10
376.818
20
214.769
30
0.0
40
2.549
1
40
41
0.584
50
0.000
100
AcDbText
0
TEXT
5
604
100
AcDbEntity
8
1-8
62
7
370
-3
100
AcDbText
10
331.958
20
268.573
30
0.0
40
3.059
1
Ｄ
41
0.856
50
0.000
100
AcDbText
0
TEXT
5
605
100
AcDbEntity
8
1-8
62
7
370
-3
100
AcDbText
10
383.571
20
268.957
30
0.0
40
2.230
1
巻上機
41
0.856
50
0.000
100
AcDbText
0
TEXT
5
606
100
AcDbEntity
8
1-8
62
4
370
-3
100
AcDbText
10
384.592
20
264.269
30
0.0
40
2.549
1
MF30
41
0.541
50
0.000
100
AcDbText
0
TEXT
5
607
100
AcDbEntity
8
1-8
62
7
370
-3
100
AcDbText
10
393.938
20
270.109
30
0.0
40
1.454
1
スキン
41
0.856
50
0.000
100
AcDbText
0
TEXT
5
608
100
AcDbEntity
8
1-8
62
4
370
-3
100
AcDbText
10
384.592
20
259.769
30
0.0
40
2.549
1
MF30
41
0.541
50
0.000
100
AcDbText
0
TEXT
5
609
100
AcDbEntity
8
1-8
62
4
370
-3
100
AcDbText
10
384.592
20
255.269
30
0.0
40
2.549
1
MF30
41
0.541
50
0.000
100
AcDbText
0
TEXT
5
60a
100
AcDbEntity
8
1-8
62
4
370
-3
100
AcDbText
10
384.592
20
250.769
30
0.0
40
2.549
1
MF30
41
0.541
50
0.000
100
AcDbText
0
TEXT
5
60b
100
AcDbEntity
8
1-8
62
4
370
-3
100
AcDbText
10
384.592
20
246.269
30
0.0
40
2.549
1
MF30
41
0.541
50
0.000
100
AcDbText
0
TEXT
5
60c
100
AcDbEntity
8
1-8
62
4
370
-3
100
AcDbText
10
384.592
20
241.769
30
0.0
40
2.549
1
MF30
41
0.541
50
0.000
100
AcDbText
0
TEXT
5
60d
100
AcDbEntity
8
1-8
62
4
370
-3
100
AcDbText
10
384.592
20
237.269
30
0.0
40
2.549
1
MF30
41
0.541
50
0.000
100
AcDbText
0
TEXT
5
60e
100
AcDbEntity
8
1-8
62
4
370
-3
100
AcDbText
10
384.592
20
232.769
30
0.0
40
2.549
1
MF30
41
0.541
50
0.000
100
AcDbText
0
TEXT
5
60f
100
AcDbEntity
8
1-8
62
4
370
-3
100
AcDbText
10
384.592
20
228.269
30
0.0
40
2.549
1
MF30
41
0.541
50
0.000
100
AcDbText
0
TEXT
5
610
100
AcDbEntity
8
1-8
62
4
370
-3
100
AcDbText
10
384.592
20
223.769
30
0.0
40
2.549
1
MF30
41
0.541
50
0.000
100
AcDbText
0
TEXT
5
611
100
AcDbEntity
8
1-8
62
4
370
-3
100
AcDbText
10
384.592
20
219.269
30
0.0
40
2.549
1
MF40
41
0.549
50
0.000
100
AcDbText
0
TEXT
5
612
100
AcDbEntity
8
1-8
62
4
370
-3
100
AcDbText
10
384.592
20
214.769
30
0.0
40
2.549
1
MF40
41
0.549
50
0.000
100
AcDbText
0
TEXT
5
613
100
AcDbEntity
8
1-8
62
4
370
-3
100
AcDbText
10
384.592
20
210.269
30
0.0
40
2.549
1
MF40
41
0.549
50
0.000
100
AcDbText
0
TEXT
5
614
100
AcDbEntity
8
1-8
62
4
370
-3
100
AcDbText
10
384.592
20
205.769
30
0.0
40
2.549
1
MF40
41
0.549
50
0.000
100
AcDbText
0
TEXT
5
615
100
AcDbEntity
8
1-8
62
4
370
-3
100
AcDbText
10
384.592
20
201.269
30
0.0
40
2.549
1
MF40
41
0.549
50
0.000
100
AcDbText
0
TEXT
5
616
100
AcDbEntity
8
1-8
62
4
370
-3
100
AcDbText
10
384.592
20
196.769
30
0.0
40
2.549
1
MF40
41
0.549
50
0.000
100
AcDbText
0
TEXT
5
617
100
AcDbEntity
8
1-8
62
7
370
-3
100
AcDbText
10
393.061
20
268.226
30
0.0
40
1.454
1
プレート
41
0.856
50
0.000
100
AcDbText
0
TEXT
5
618
100
AcDbEntity
8
1-8
62
4
370
-3
100
AcDbText
10
393.294
20
264.249
30
0.0
40
2.230
1
PL-9T
41
0.521
50
0.000
100
AcDbText
0
TEXT
5
619
100
AcDbEntity
8
1-8
62
4
370
-3
100
AcDbText
10
393.294
20
259.749
30
0.0
40
2.230
1
PL-9T
41
0.521
50
0.000
100
AcDbText
0
TEXT
5
61a
100
AcDbEntity
8
1-8
62
4
370
-3
100
AcDbText
10
393.294
20
255.249
30
0.0
40
2.230
1
PL-9T
41
0.521
50
0.000
100
AcDbText
0
TEXT
5
61b
100
AcDbEntity
8
1-8
62
4
370
-3
100
AcDbText
10
393.294
20
250.749
30
0.0
40
2.230
1
PL-9T
41
0.521
50
0.000
100
AcDbText
0
TEXT
5
61c
100
AcDbEntity
8
1-8
62
4
370
-3
100
AcDbText
10
393.294
20
246.249
30
0.0
40
2.230
1
PL-9T
41
0.521
50
0.000
100
AcDbText
0
TEXT
5
61d
100
AcDbEntity
8
1-8
62
4
370
-3
100
AcDbText
10
393.294
20
241.749
30
0.0
40
2.230
1
PL-9T
41
0.521
50
0.000
100
AcDbText
0
TEXT
5
61e
100
AcDbEntity
8
1-8
62
4
370
-3
100
AcDbText
10
392.632
20
237.249
30
0.0
40
2.230
1
PL-12T
41
0.540
50
0.000
100
AcDbText
0
TEXT
5
61f
100
AcDbEntity
8
1-8
62
4
370
-3
100
AcDbText
10
392.632
20
232.749
30
0.0
40
2.230
1
PL-12T
41
0.540
50
0.000
100
AcDbText
0
TEXT
5
620
100
AcDbEntity
8
1-8
62
4
370
-3
100
AcDbText
10
392.632
20
228.249
30
0.0
40
2.230
1
PL-12T
41
0.540
50
0.000
100
AcDbText
0
TEXT
5
621
100
AcDbEntity
8
1-8
62
4
370
-3
100
AcDbText
10
392.632
20
223.749
30
0.0
40
2.230
1
PL-12T
41
0.540
50
0.000
100
AcDbText
0
TEXT
5
622
100
AcDbEntity
8
1-8
62
4
370
-3
100
AcDbText
10
392.632
20
219.249
30
0.0
40
2.230
1
PL-12T
41
0.540
50
0.000
100
AcDbText
0
TEXT
5
623
100
AcDbEntity
8
1-8
62
4
370
-3
100
AcDbText
10
392.632
20
214.749
30
0.0
40
2.230
1
PL-12T
41
0.540
50
0.000
100
AcDbText
0
TEXT
5
624
100
AcDbEntity
8
1-8
62
4
370
-3
100
AcDbText
10
392.632
20
210.249
30
0.0
40
2.230
1
PL-16T
41
0.550
50
0.000
100
AcDbText
0
TEXT
5
625
100
AcDbEntity
8
1-8
62
4
370
-3
100
AcDbText
10
392.632
20
205.749
30
0.0
40
2.230
1
PL-16T
41
0.550
50
0.000
100
AcDbText
0
TEXT
5
626
100
AcDbEntity
8
1-8
62
4
370
-3
100
AcDbText
10
392.632
20
201.249
30
0.0
40
2.230
1
PL-16T
41
0.550
50
0.000
100
AcDbText
0
TEXT
5
627
100
AcDbEntity
8
1-8
62
4
370
-3
100
AcDbText
10
392.632
20
196.749
30
0.0
40
2.230
1
PL-16T
41
0.550
50
0.000
100
AcDbText
0
TEXT
5
628
100
AcDbEntity
8
1-8
62
4
370
-3
100
AcDbText
10
367.512
20
264.269
30
0.0
40
2.549
1
350
41
0.543
50
0.000
100
AcDbText
0
TEXT
5
629
100
AcDbEntity
8
1-8
62
4
370
-3
100
AcDbText
10
367.512
20
259.769
30
0.0
40
2.549
1
450
41
0.554
50
0.000
100
AcDbText
0
TEXT
5
62a
100
AcDbEntity
8
1-8
62
4
370
-3
100
AcDbText
10
367.512
20
255.269
30
0.0
40
2.549
1
400
41
0.598
50
0.000
100
AcDbText
0
TEXT
5
62b
100
AcDbEntity
8
1-8
62
4
370
-3
100
AcDbText
10
367.512
20
250.769
30
0.0
40
2.549
1
550
41
0.537
50
0.000
100
AcDbText
0
TEXT
5
62c
100
AcDbEntity
8
1-8
62
4
370
-3
100
AcDbText
10
367.512
20
246.269
30
0.0
40
2.549
1
450
41
0.554
50
0.000
100
AcDbText
0
TEXT
5
62d
100
AcDbEntity
8
1-8
62
4
370
-3
100
AcDbText
10
367.512
20
241.769
30
0.0
40
2.549
1
650
41
0.538
50
0.000
100
AcDbText
0
TEXT
5
62e
100
AcDbEntity
8
1-8
62
4
370
-3
100
AcDbText
10
367.512
20
237.269
30
0.0
40
2.549
1
550
41
0.537
50
0.000
100
AcDbText
0
TEXT
5
62f
100
AcDbEntity
8
1-8
62
4
370
-3
100
AcDbText
10
367.512
20
232.769
30
0.0
40
2.549
1
750
41
0.552
50
0.000
100
AcDbText
0
TEXT
5
630
100
AcDbEntity
8
1-8
62
4
370
-3
100
AcDbText
10
367.512
20
228.269
30
0.0
40
2.549
1
650
41
0.538
50
0.000
100
AcDbText
0
TEXT
5
631
100
AcDbEntity
8
1-8
62
4
370
-3
100
AcDbText
10
367.512
20
223.769
30
0.0
40
2.549
1
850
41
0.534
50
0.000
100
AcDbText
0
TEXT
5
632
100
AcDbEntity
8
1-8
62
4
370
-3
100
AcDbText
10
367.512
20
219.269
30
0.0
40
2.549
1
650
41
0.538
50
0.000
100
AcDbText
0
TEXT
5
633
100
AcDbEntity
8
1-8
62
4
370
-3
100
AcDbText
10
367.512
20
214.769
30
0.0
40
2.549
1
950
41
0.554
50
0.000
100
AcDbText
0
TEXT
5
634
100
AcDbEntity
8
1-8
62
4
370
-3
100
AcDbText
10
367.512
20
210.269
30
0.0
40
2.549
1
750
41
0.552
50
0.000
100
AcDbText
0
TEXT
5
635
100
AcDbEntity
8
1-8
62
4
370
-3
100
AcDbText
10
366.597
20
205.769
30
0.0
40
2.549
1
1050
41
0.630
50
0.000
100
AcDbText
0
TEXT
5
636
100
AcDbEntity
8
1-8
62
4
370
-3
100
AcDbText
10
367.512
20
201.269
30
0.0
40
2.549
1
750
41
0.552
50
0.000
100
AcDbText
0
TEXT
5
637
100
AcDbEntity
8
1-8
62
4
370
-3
100
AcDbText
10
366.597
20
196.769
30
0.0
40
2.549
1
1150
41
0.676
50
0.000
100
AcDbText
0
TEXT
5
638
100
AcDbEntity
8
1-8
62
4
370
-3
100
AcDbText
10
339.809
20
264.269
30
0.0
40
2.549
1
----
41
0.525
50
0.000
100
AcDbText
0
TEXT
5
639
100
AcDbEntity
8
1-8
62
4
370
-3
100
AcDbText
10
339.809
20
259.769
30
0.0
40
2.549
1
----
41
0.525
50
0.000
100
AcDbText
0
TEXT
5
63a
100
AcDbEntity
8
1-8
62
4
370
-3
100
AcDbText
10
339.809
20
255.269
30
0.0
40
2.549
1
----
41
0.525
50
0.000
100
AcDbText
0
TEXT
5
63b
100
AcDbEntity
8
1-8
62
4
370
-3
100
AcDbText
10
339.809
20
250.769
30
0.0
40
2.549
1
----
41
0.525
50
0.000
100
AcDbText
0
TEXT
5
63c
100
AcDbEntity
8
1-8
62
4
370
-3
100
AcDbText
10
339.809
20
246.269
30
0.0
40
2.549
1
----
41
0.525
50
0.000
100
AcDbText
0
TEXT
5
63d
100
AcDbEntity
8
1-8
62
4
370
-3
100
AcDbText
10
339.809
20
241.769
30
0.0
40
2.549
1
----
41
0.525
50
0.000
100
AcDbText
0
TEXT
5
63e
100
AcDbEntity
8
1-8
62
4
370
-3
100
AcDbText
10
339.809
20
237.269
30
0.0
40
2.549
1
----
41
0.525
50
0.000
100
AcDbText
0
TEXT
5
63f
100
AcDbEntity
8
1-8
62
4
370
-3
100
AcDbText
10
339.809
20
232.769
30
0.0
40
2.549
1
----
41
0.525
50
0.000
100
AcDbText
0
TEXT
5
640
100
AcDbEntity
8
1-8
62
4
370
-3
100
AcDbText
10
339.809
20
228.269
30
0.0
40
2.549
1
----
41
0.525
50
0.000
100
AcDbText
0
TEXT
5
641
100
AcDbEntity
8
1-8
62
4
370
-3
100
AcDbText
10
339.809
20
223.769
30
0.0
40
2.549
1
----
41
0.525
50
0.000
100
AcDbText
0
TEXT
5
642
100
AcDbEntity
8
1-8
62
4
370
-3
100
AcDbText
10
339.809
20
219.269
30
0.0
40
2.549
1
----
41
0.525
50
0.000
100
AcDbText
0
TEXT
5
643
100
AcDbEntity
8
1-8
62
4
370
-3
100
AcDbText
10
339.809
20
214.769
30
0.0
40
2.549
1
----
41
0.525
50
0.000
100
AcDbText
0
TEXT
5
644
100
AcDbEntity
8
1-8
62
4
370
-3
100
AcDbText
10
339.809
20
210.269
30
0.0
40
2.549
1
----
41
0.525
50
0.000
100
AcDbText
0
TEXT
5
645
100
AcDbEntity
8
1-8
62
4
370
-3
100
AcDbText
10
339.809
20
205.769
30
0.0
40
2.549
1
----
41
0.525
50
0.000
100
AcDbText
0
TEXT
5
646
100
AcDbEntity
8
1-8
62
4
370
-3
100
AcDbText
10
339.809
20
201.269
30
0.0
40
2.549
1
----
41
0.525
50
0.000
100
AcDbText
0
TEXT
5
647
100
AcDbEntity
8
1-8
62
4
370
-3
100
AcDbText
10
339.809
20
196.769
30
0.0
40
2.549
1
----
41
0.525
50
0.000
100
AcDbText
0
TEXT
5
648
100
AcDbEntity
8
1-8
62
4
370
-3
100
AcDbText
10
329.585
20
183.434
30
0.0
40
2.266
1
・社内基準により設定しています。
41
0.856
50
0.000
100
AcDbText
0
LINE
5
649
100
AcDbEntity
8
2-0
6
CONTINUOUS
62
7
100
AcDbLine
10
290.885247970122
20
77.350923370222
30
0.0
11
291.218457846602
21
77.350923370222
31
0.0
0
LINE
5
64a
100
AcDbEntity
8
2-0
6
CONTINUOUS
62
7
100
AcDbLine
10
290.052161550527
20
87.017466578262
30
0.0
11
290.052161550527
21
78.184133246607
31
0.0
0
LINE
5
64b
100
AcDbEntity
8
2-1
6
CONTINUOUS
62
3
100
AcDbLine
10
286.052038094497
20
89.017466577881
30
0.0
11
287.718581304057
21
89.017466577881
31
0.0
0
POLYLINE
5
64c
100
AcDbEntity
8
2-1
6
CONTINUOUS
62
  3
100
AcDb2dPolyline
66
1
10
0.0
20
0.0
30
0.0
70
0
0
VERTEX
5
64d
100
AcDbEntity
8
2-1
6
CONTINUOUS
62
  3
100
AcDbVertex
100
AcDb2dVertex
10
286.052038094497
20
99.017466575982
30
0.0
0
VERTEX
5
64e
100
AcDbEntity
8
2-1
6
CONTINUOUS
62
  3
100
AcDbVertex
100
AcDb2dVertex
10
287.718581304057
20
99.017466575982
30
0.0
0
VERTEX
5
64f
100
AcDbEntity
8
2-1
6
CONTINUOUS
62
  3
100
AcDbVertex
100
AcDb2dVertex
10
287.718581304057
20
89.017466577881
30
0.0
0
SEQEND
5
650
100
AcDbEntity
8
2-1
0
LINE
5
651
100
AcDbEntity
8
2-1
6
CONTINUOUS
62
3
100
AcDbLine
10
287.718581304057
20
97.184133242997
30
0.0
11
288.718457847077
21
97.184133242997
31
0.0
0
LINE
5
652
100
AcDbEntity
8
2-1
6
CENTER2
62
3
100
AcDbLine
10
281.608828218798
20
94.017466576932
30
0.0
11
289.393766488924
21
94.017466576932
31
0.0
0
LINE
5
653
100
AcDbEntity
8
2-1
6
CONTINUOUS
62
3
100
AcDbLine
10
287.718581304057
20
90.850799910866
30
0.0
11
288.718457847077
21
90.850799910866
31
0.0
0
LINE
5
654
100
AcDbEntity
8
2-0
6
CONTINUOUS
62
2
100
AcDbLine
10
280.385371428907
20
115.684133239482
30
0.0
11
278.718704762557
21
115.684133239482
31
0.0
0
LINE
5
655
100
AcDbEntity
8
2-4
6
CONTINUOUS
62
2
100
AcDbLine
10
280.385371428907
20
115.684133239482
30
0.0
11
281.385494885507
21
112.184133240147
31
0.0
0
LINE
5
656
100
AcDbEntity
8
2-0
6
CONTINUOUS
62
2
100
AcDbLine
10
284.052038094877
20
115.684133239482
30
0.0
11
283.052038095067
21
115.684133239482
31
0.0
0
LINE
5
657
100
AcDbEntity
8
2-4
6
CONTINUOUS
62
2
100
AcDbLine
10
283.052038095067
20
115.684133239482
30
0.0
11
281.385494885507
21
109.850799907257
31
0.0
0
LINE
5
658
100
AcDbEntity
8
2-4
6
CONTINUOUS
62
2
100
AcDbLine
10
281.385494885507
20
112.184133240147
30
0.0
11
281.385494885507
21
107.350676450941
31
0.0
0
LINE
5
659
100
AcDbEntity
8
2-0
6
CONTINUOUS
62
2
100
AcDbLine
10
280.385371428907
20
99.017466575982
30
0.0
11
278.718704762557
21
99.017466575982
31
0.0
0
LINE
5
65a
100
AcDbEntity
8
2-4
6
CONTINUOUS
62
2
100
AcDbLine
10
280.385371428907
20
99.017466575982
30
0.0
11
281.385494885507
21
102.517343118526
31
0.0
0
LINE
5
65b
100
AcDbEntity
8
2-0
6
CONTINUOUS
62
2
100
AcDbLine
10
284.052038094877
20
99.017466575982
30
0.0
11
283.052038095067
21
99.017466575982
31
0.0
0
LINE
5
65c
100
AcDbEntity
8
2-4
6
CONTINUOUS
62
2
100
AcDbLine
10
283.052038095067
20
99.017466575982
30
0.0
11
281.385494885507
21
104.850799908207
31
0.0
0
LINE
5
65d
100
AcDbEntity
8
2-4
6
CONTINUOUS
62
2
100
AcDbLine
10
281.385494885507
20
102.517343118526
30
0.0
11
281.385494885507
21
107.350676450941
31
0.0
0
LINE
5
65e
100
AcDbEntity
8
2-0
6
CENTER2
62
2
100
AcDbLine
10
285.358704761295
20
107.350676450941
30
0.0
11
277.604136861534
21
107.350676450941
31
0.0
0
LINE
5
65f
100
AcDbEntity
8
2-1
6
CONTINUOUS
62
3
100
AcDbLine
10
286.052038094497
20
90.684133244232
30
0.0
11
284.052038094877
21
90.684133244232
31
0.0
0
LINE
5
660
100
AcDbEntity
8
2-E
6
CONTINUOUS
62
3
100
AcDbLine
10
286.052038094497
20
98.977836946359
30
0.0
11
286.091667724119
21
99.017466575982
31
0.0
0
LINE
5
661
100
AcDbEntity
8
2-E
6
DOT
62
3
100
AcDbLine
10
288.052038094117
20
94.684133243471
30
0.0
11
288.718457847077
21
95.350799910012
31
0.0
0
LINE
5
662
100
AcDbEntity
8
2-E
6
DOT
62
3
100
AcDbLine
10
288.052038094117
20
93.350799910392
30
0.0
11
288.718457847077
21
92.684133243852
31
0.0
0
LINE
5
663
100
AcDbEntity
8
2-E
6
DOT
62
3
100
AcDbLine
10
288.052038094117
20
94.684133243471
30
0.0
11
288.052038094117
21
93.350799910392
31
0.0
0
LINE
5
664
100
AcDbEntity
8
2-E
6
DOT
62
3
100
AcDbLine
10
284.052038094877
20
93.350799910392
30
0.0
11
288.052038094117
21
93.350799910392
31
0.0
0
LINE
5
665
100
AcDbEntity
8
2-E
6
DOT
62
3
100
AcDbLine
10
284.052038094877
20
94.684133243471
30
0.0
11
288.052038094117
21
94.684133243471
31
0.0
0
LINE
5
666
100
AcDbEntity
8
2-1
6
CONTINUOUS
62
3
100
AcDbLine
10
288.718457847077
20
97.184133242997
30
0.0
11
288.718457847077
21
90.850799910866
31
0.0
0
LINE
5
667
100
AcDbEntity
8
2-1
6
CONTINUOUS
62
3
100
AcDbLine
10
283.785371428261
20
92.517466577216
30
0.0
11
284.052038094877
21
92.517466577216
31
0.0
0
LINE
5
668
100
AcDbEntity
8
2-1
6
CONTINUOUS
62
3
100
AcDbLine
10
282.052038095257
20
94.017466576932
30
0.0
11
282.052038095257
21
93.350799910392
31
0.0
0
LINE
5
669
100
AcDbEntity
8
2-1
6
CONTINUOUS
62
3
100
AcDbLine
10
282.702038095133
20
93.517466577027
30
0.0
11
282.052038095257
21
93.517466577027
31
0.0
0
LINE
5
66a
100
AcDbEntity
8
2-1
6
CONTINUOUS
62
3
100
AcDbLine
10
283.785371428261
20
94.017466576932
30
0.0
11
283.785371428261
21
92.517466577216
31
0.0
0
LINE
5
66b
100
AcDbEntity
8
2-1
6
CONTINUOUS
62
3
100
AcDbLine
10
283.785371428261
20
95.517466576646
30
0.0
11
284.052038094877
21
95.517466576646
31
0.0
0
LINE
5
66c
100
AcDbEntity
8
2-1
6
CONTINUOUS
62
3
100
AcDbLine
10
282.052038095257
20
94.017466576932
30
0.0
11
282.052038095257
21
94.684133243471
31
0.0
0
LINE
5
66d
100
AcDbEntity
8
2-1
6
CONTINUOUS
62
3
100
AcDbLine
10
282.702038095133
20
94.517466576837
30
0.0
11
282.052038095257
21
94.517466576837
31
0.0
0
LINE
5
66e
100
AcDbEntity
8
2-1
6
CONTINUOUS
62
3
100
AcDbLine
10
283.785371428261
20
94.017466576932
30
0.0
11
283.785371428261
21
95.517466576646
31
0.0
0
LINE
5
66f
100
AcDbEntity
8
2-0
6
CONTINUOUS
62
7
100
AcDbLine
10
282.702038095133
20
92.934133243804
30
0.0
11
282.798828218572
21
92.766478922848
31
0.0
0
LINE
5
670
100
AcDbEntity
8
2-0
6
CONTINUOUS
62
7
100
AcDbLine
10
282.702038095133
20
95.100799910059
30
0.0
11
282.798828218572
21
95.268330774225
31
0.0
0
LINE
5
671
100
AcDbEntity
8
2-0
6
CONTINUOUS
62
7
100
AcDbLine
10
282.702038095133
20
92.934133243804
30
0.0
11
282.702038095133
21
95.100799910059
31
0.0
0
LINE
5
672
100
AcDbEntity
8
2-0
6
CONTINUOUS
62
7
100
AcDbLine
10
283.785371428261
20
95.268330774225
30
0.0
11
282.798828218572
21
95.268330774225
31
0.0
0
LINE
5
673
100
AcDbEntity
8
2-0
6
CONTINUOUS
62
7
100
AcDbLine
10
283.785371428261
20
92.766478922848
30
0.0
11
282.798828218572
21
92.766478922848
31
0.0
0
LINE
5
674
100
AcDbEntity
8
2-1
6
CONTINUOUS
62
3
100
AcDbLine
10
282.702038095133
20
94.684133243471
30
0.0
11
282.052038095257
21
94.684133243471
31
0.0
0
LINE
5
675
100
AcDbEntity
8
2-1
6
CONTINUOUS
62
3
100
AcDbLine
10
282.702038095133
20
93.350799910392
30
0.0
11
282.052038095257
21
93.350799910392
31
0.0
0
LINE
5
676
100
AcDbEntity
8
2-0
6
CONTINUOUS
62
7
100
AcDbLine
10
283.785371428261
20
94.642898675578
30
0.0
11
282.798828218572
21
94.642898675578
31
0.0
0
LINE
5
677
100
AcDbEntity
8
2-0
6
CONTINUOUS
62
7
100
AcDbLine
10
283.785371428261
20
93.392034478285
30
0.0
11
282.798828218572
21
93.392034478285
31
0.0
0
LINE
5
678
100
AcDbEntity
8
2-0
6
CONTINUOUS
62
4
100
AcDbLine
10
286.052038094497
20
89.075120898858
30
0.0
11
286.109692415474
21
89.017466577881
31
0.0
0
LINE
5
679
100
AcDbEntity
8
2-0
6
CONTINUOUS
62
4
100
AcDbLine
10
286.052038094497
20
90.347960404789
30
0.0
11
287.382531921405
21
89.017466577881
31
0.0
0
LINE
5
67a
100
AcDbEntity
8
2-0
6
CONTINUOUS
62
4
100
AcDbLine
10
286.052038094497
20
90.489318429454
30
0.0
11
287.523889946069
21
89.017466577881
31
0.0
0
LINE
5
67b
100
AcDbEntity
8
2-0
6
CONTINUOUS
62
4
100
AcDbLine
10
286.052038094497
20
91.762157935385
30
0.0
11
287.718581304057
21
90.095491269035
31
0.0
0
LINE
5
67c
100
AcDbEntity
8
2-0
6
CONTINUOUS
62
4
100
AcDbLine
10
286.052038094497
20
91.903515960049
30
0.0
11
287.718581304057
21
90.236972750489
31
0.0
0
LINE
5
67d
100
AcDbEntity
8
2-0
6
CONTINUOUS
62
4
100
AcDbLine
10
286.052038094497
20
93.176355465980
30
0.0
11
287.718581304057
21
91.509688799630
31
0.0
0
LINE
5
67e
100
AcDbEntity
8
2-0
6
CONTINUOUS
62
4
100
AcDbLine
10
286.052038094497
20
93.317713490645
30
0.0
11
287.718581304057
21
91.651170281085
31
0.0
0
LINE
5
67f
100
AcDbEntity
8
2-0
6
CONTINUOUS
62
4
100
AcDbLine
10
286.052038094497
20
94.590552996576
30
0.0
11
287.718581304057
21
92.923886330226
31
0.0
0
LINE
5
680
100
AcDbEntity
8
2-0
6
CONTINUOUS
62
4
100
AcDbLine
10
286.052038094497
20
94.731911021240
30
0.0
11
287.718581304057
21
93.065367811680
31
0.0
0
LINE
5
681
100
AcDbEntity
8
2-0
6
CONTINUOUS
62
4
100
AcDbLine
10
286.052038094497
20
96.004627070381
30
0.0
11
287.718581304057
21
94.338083860821
31
0.0
0
LINE
5
682
100
AcDbEntity
8
2-0
6
CONTINUOUS
62
4
100
AcDbLine
10
286.052038094497
20
96.146108551836
30
0.0
11
287.718581304057
21
94.479441885486
31
0.0
0
LINE
5
683
100
AcDbEntity
8
2-0
6
CONTINUOUS
62
4
100
AcDbLine
10
286.052038094497
20
97.418824600977
30
0.0
11
287.718581304057
21
95.752281391417
31
0.0
0
LINE
5
684
100
AcDbEntity
8
2-0
6
CONTINUOUS
62
4
100
AcDbLine
10
286.052038094497
20
97.560306082431
30
0.0
11
287.718581304057
21
95.893639416081
31
0.0
0
LINE
5
685
100
AcDbEntity
8
2-0
6
CONTINUOUS
62
4
100
AcDbLine
10
286.052038094497
20
98.833022131572
30
0.0
11
287.718581304057
21
97.166478922012
31
0.0
0
LINE
5
686
100
AcDbEntity
8
2-0
6
CONTINUOUS
62
4
100
AcDbLine
10
286.052038094497
20
98.974503613027
30
0.0
11
287.718581304057
21
97.307836946677
31
0.0
0
LINE
5
687
100
AcDbEntity
8
2-0
6
CONTINUOUS
62
4
100
AcDbLine
10
287.281791180683
20
99.017466575982
30
0.0
11
287.718581304057
21
98.580676452608
31
0.0
0
LINE
5
688
100
AcDbEntity
8
2-0
6
CONTINUOUS
62
4
100
AcDbLine
10
287.423149205347
20
99.017466575982
30
0.0
11
287.718581304057
21
98.722034477272
31
0.0
0
LINE
5
689
100
AcDbEntity
8
2-0
6
CONTINUOUS
62
7
100
AcDbLine
10
274.552038096682
20
88.684133244612
30
0.0
11
274.552038096682
21
89.850799911057
31
0.0
0
LINE
5
68a
100
AcDbEntity
8
2-0
6
CONTINUOUS
62
7
100
AcDbLine
10
274.552038096682
20
88.684133244612
30
0.0
11
288.385494884177
21
88.684133244612
31
0.0
0
LINE
5
68b
100
AcDbEntity
8
2-0
6
CONTINUOUS
62
4
100
AcDbLine
10
274.552038096682
20
61.391046830044
30
0.0
11
291.218581303392
21
61.391046830044
31
0.0
0
LINE
5
68c
100
AcDbEntity
8
2-0
6
CONTINUOUS
62
4
100
AcDbLine
10
291.218581303392
20
67.480306088146
30
0.0
11
291.218581303392
21
60.391046830234
31
0.0
0
LINE
5
68d
100
AcDbEntity
8
2-0
6
CONTINUOUS
62
4
100
AcDbLine
10
274.552038096682
20
61.391046830044
30
0.0
11
276.483889948167
21
61.908701150933
31
0.0
0
LINE
5
68e
100
AcDbEntity
8
2-0
6
CONTINUOUS
62
4
100
AcDbLine
10
274.552038096682
20
61.391046830044
30
0.0
11
276.483889948167
21
60.873392509155
31
0.0
0
LINE
5
68f
100
AcDbEntity
8
2-0
6
CONTINUOUS
62
4
100
AcDbLine
10
291.218581303392
20
61.391046830044
30
0.0
11
289.286729451907
21
61.908701150933
31
0.0
0
LINE
5
690
100
AcDbEntity
8
2-0
6
CONTINUOUS
62
4
100
AcDbLine
10
291.218581303392
20
61.391046830044
30
0.0
11
289.286729451907
21
60.873392509155
31
0.0
0
LINE
5
691
100
AcDbEntity
8
2-0
6
CONTINUOUS
62
4
100
AcDbLine
10
274.552038096682
20
86.966108553580
30
0.0
11
274.552038096682
21
60.391046830234
31
0.0
0
LINE
5
692
100
AcDbEntity
8
2-B
6
CONTINUOUS
62
7
100
AcDbLine
10
264.783272666439
20
122.934133238104
30
0.0
11
264.783272666439
21
124.267466571184
31
0.0
0
LINE
5
693
100
AcDbEntity
8
2-B
6
CONTINUOUS
62
7
100
AcDbLine
10
264.783272666439
20
120.267466571944
30
0.0
11
264.783272666439
21
118.934133238864
31
0.0
0
LINE
5
694
100
AcDbEntity
8
2-B
6
CONTINUOUS
62
7
100
AcDbLine
10
264.783272666439
20
124.267466571184
30
0.0
11
269.402161554450
21
121.600799905024
31
0.0
0
LINE
5
695
100
AcDbEntity
8
2-B
6
CONTINUOUS
62
7
100
AcDbLine
10
264.783272666439
20
118.934133238864
30
0.0
11
269.402161554450
21
121.600799905024
31
0.0
0
LINE
5
696
100
AcDbEntity
8
2-B
6
CONTINUOUS
62
7
100
AcDbLine
10
250.116606002559
20
122.934133238104
30
0.0
11
264.783272666439
21
122.934133238104
31
0.0
0
LINE
5
697
100
AcDbEntity
8
2-B
6
CONTINUOUS
62
7
100
AcDbLine
10
250.116606002559
20
120.267466571944
30
0.0
11
264.783272666439
21
120.267466571944
31
0.0
0
LINE
5
698
100
AcDbEntity
8
2-B
6
CONTINUOUS
62
7
100
AcDbLine
10
250.116606002559
20
122.934133238104
30
0.0
11
250.116606002559
21
120.267466571944
31
0.0
0
LINE
5
699
100
AcDbEntity
8
2-0
6
CONTINUOUS
62
7
100
AcDbLine
10
277.218581306052
20
159.850799897757
30
0.0
11
277.218581306052
21
89.850799911057
31
0.0
0
LINE
5
69a
100
AcDbEntity
8
2-0
6
CONTINUOUS
62
7
100
AcDbLine
10
278.718704762557
20
159.850799897757
30
0.0
11
278.718704762557
21
89.850799911057
31
0.0
0
LINE
5
69b
100
AcDbEntity
8
2-1
6
CONTINUOUS
62
3
100
AcDbLine
10
284.052038094877
20
159.850799897757
30
0.0
11
284.052038094877
21
90.684133244232
31
0.0
0
LINE
5
69c
100
AcDbEntity
8
2-1
6
CONTINUOUS
62
3
100
AcDbLine
10
286.052038094497
20
159.850799897757
30
0.0
11
286.052038094497
21
89.017466577881
31
0.0
0
LINE
5
69d
100
AcDbEntity
8
2-0
6
CONTINUOUS
62
7
100
AcDbLine
10
289.718704760467
20
89.850799911057
30
0.0
11
289.718704760467
21
159.850799897757
31
0.0
0
LINE
5
69e
100
AcDbEntity
8
2-0
6
PHANTOM2
62
4
100
AcDbLine
10
274.402161553500
20
159.850799897757
30
0.0
11
301.213272659517
21
159.850799897757
31
0.0
0
LINE
5
69f
100
AcDbEntity
8
2-0
6
CONTINUOUS
62
7
100
AcDbLine
10
291.218457846602
20
159.850799897757
30
0.0
11
291.218457846602
21
68.030553001622
31
0.0
0
LINE
5
6a0
100
AcDbEntity
8
2-0
6
CONTINUOUS
62
4
100
AcDbLine
10
269.695741801308
20
168.382034464037
30
0.0
11
298.916359079707
21
168.382034464037
31
0.0
0
LINE
5
6a1
100
AcDbEntity
8
2-0
6
CONTINUOUS
62
7
100
AcDbLine
10
301.600803523641
20
89.850799911057
30
0.0
11
274.552038096682
21
89.850799911057
31
0.0
0
LINE
5
6a2
100
AcDbEntity
8
2-0
6
CONTINUOUS
62
4
100
AcDbLine
10
311.043396114440
20
89.850799911057
30
0.0
11
311.043396114440
21
159.850799897757
31
0.0
0
LINE
5
6a3
100
AcDbEntity
8
2-0
6
CONTINUOUS
62
4
100
AcDbLine
10
311.043396114440
20
89.850799911057
30
0.0
11
310.525741793551
21
91.782651762541
31
0.0
0
LINE
5
6a4
100
AcDbEntity
8
2-0
6
CONTINUOUS
62
4
100
AcDbLine
10
311.043396114440
20
89.850799911057
30
0.0
11
311.561050435329
21
91.782651762541
31
0.0
0
LINE
5
6a5
100
AcDbEntity
8
2-0
6
CONTINUOUS
62
4
100
AcDbLine
10
303.336359078867
20
89.850799911057
30
0.0
11
312.043396114250
21
89.850799911057
31
0.0
0
LINE
5
6a6
100
AcDbEntity
8
2-E
6
CONTINUOUS
62
4
100
AcDbLine
10
269.463396122340
20
73.975985099258
30
0.0
11
269.463396122340
21
57.975985102298
31
0.0
0
LINE
5
6a7
100
AcDbEntity
8
2-0
6
CONTINUOUS
62
4
100
AcDbLine
10
269.463396122340
20
47.975985104198
30
0.0
11
290.052161550527
21
85.696602380982
31
0.0
0
LINE
5
6a8
100
AcDbEntity
8
2-0
6
CONTINUOUS
62
4
100
AcDbLine
10
269.463396122340
20
73.975985099258
30
0.0
11
286.851791180765
21
91.786232009454
31
0.0
0
ARC
5
6a9
100
AcDbEntity
8
2-0
6
CONTINUOUS
62
7
100
AcDbCircle
10
290.885247970122
20
78.184133246607
30
0.0
40
0.833333333175
100
AcDbArc
50
180.000000000000
51
270.000000000000
0
ARC
5
6aa
100
AcDbEntity
8
2-0
6
CONTINUOUS
62
7
100
AcDbCircle
10
288.385494884177
20
87.017466578262
30
0.0
40
1.666666666350
100
AcDbArc
50
0.000000000000
51
90.000000000000
0
ARC
5
6ab
100
AcDbEntity
8
2-0
6
CONTINUOUS
62
7
100
AcDbCircle
10
284.771914637950
20
94.017466576932
30
0.0
40
2.069876542817
100
AcDbArc
50
162.412000000000
51
197.588000000000
0
ARC
5
6ac
100
AcDbEntity
8
2-0
6
CONTINUOUS
62
7
100
AcDbCircle
10
283.255741798732
20
93.079194972172
30
0.0
40
0.553703703599
100
AcDbArc
50
145.615000000000
51
205.614000000000
0
ARC
5
6ad
100
AcDbEntity
8
2-0
6
CONTINUOUS
62
7
100
AcDbCircle
10
283.255741798732
20
94.955614724901
30
0.0
40
0.553703703599
100
AcDbArc
50
154.386000000000
51
214.385000000000
0
POLYLINE
5
6ae
100
AcDbEntity
  8
2-0
6
CONTINUOUS
62
4
100
AcDb2dPolyline
66
1
10
0
20
0
70
1
40
0.400
41
0.400
0
VERTEX
5
6af
100
AcDbEntity
  8
2-0
6
CONTINUOUS
62
4
100
AcDbVertex
100
AcDb2dVertex
10
286.652
20
91.786
30
0.0
42
1.000
0
VERTEX
5
6b0
100
AcDbEntity
  8
2-0
6
CONTINUOUS
62
4
100
AcDbVertex
100
AcDb2dVertex
10
287.052
20
91.786
30
0.0
42
1.000
0
SEQEND
5
6b1
100
AcDbEntity
  8
2-0
0
POLYLINE
5
6b2
100
AcDbEntity
  8
2-0
6
CONTINUOUS
62
4
100
AcDb2dPolyline
66
1
10
0
20
0
70
1
40
0.400
41
0.400
0
VERTEX
5
6b3
100
AcDbEntity
  8
2-0
6
CONTINUOUS
62
4
100
AcDbVertex
100
AcDb2dVertex
10
289.852
20
85.696
30
0.0
42
1.000
0
VERTEX
5
6b4
100
AcDbEntity
  8
2-0
6
CONTINUOUS
62
4
100
AcDbVertex
100
AcDb2dVertex
10
290.252
20
85.696
30
0.0
42
1.000
0
SEQEND
5
6b5
100
AcDbEntity
  8
2-0
0
TEXT
5
6b6
100
AcDbEntity
8
2-0
62
7
370
-3
100
AcDbText
10
280.901
20
62.777
30
0.0
40
2.203
1
100
41
0.689
50
0.000
100
AcDbText
0
TEXT
5
6b7
100
AcDbEntity
8
2-B
62
3
370
-3
100
AcDbText
10
273.573
20
170.436
30
0.0
40
3.671
1
側部詳細図
41
0.856
50
0.000
100
AcDbText
0
TEXT
5
6b8
100
AcDbEntity
8
2-0
62
7
370
-3
100
AcDbText
10
309.657
20
123.647
30
0.0
40
2.203
1
Ｂ
41
0.856
50
90.000
100
AcDbText
0
MTEXT
5
6b9
100
AcDbEntity
8
2-E
62
7
370
-3
100
AcDbMText
10
224.880
20
49.117
30
0.0
40
2.081
41
0.000
71
7
72
1
1
\W0.972;下部戸当り{\W0.700; L100x75x7(SS400)}
7
STANDARD
11
1.00000
21
0.00000
31
0.0
0
TEXT
5
6ba
100
AcDbEntity
8
2-E
62
7
370
-3
100
AcDbText
10
225.034
20
44.215
30
0.0
40
2.203
1
           L100x75x6(SUS304)
41
0.663
50
0.000
100
AcDbText
0
LINE
5
6bb
100
AcDbEntity
8
2-E
6
CONTINUOUS
62
4
100
AcDbLine
10
222.095731845168
20
47.975985104198
30
0.0
11
269.463396122340
21
47.975985104198
31
0.0
0
TEXT
5
6bc
100
AcDbEntity
8
0-0
62
7
370
-3
100
AcDbText
10
351.364
20
27.007
30
0.0
40
3.626
41
0.856
50
0.000
1
熊崎
72
1
11
355.500
21
28.500
31
0.0
100
AcDbText
73
2
0
MTEXT
5
6bd
100
AcDbEntity
8
0-0
62
7
370
-3
100
AcDbMText
10
362.504
20
48.722
30
0.0
40
2.568
41
0.000
71
7
72
1
1
\W0.972;型式{\W0.700; KMSL-    -3PS}
7
STANDARD
11
1.00000
21
0.00000
31
0.0
0
TEXT
5
6be
100
AcDbEntity
8
0-0
62
7
370
-3
100
AcDbText
10
357.411
20
42.567
30
0.0
40
3.554
1
簡易スルースゲート
41
0.856
50
0.000
100
AcDbText
0
LINE
5
6bf
100
AcDbEntity
8
0-0
6
CONTINUOUS
62
3
100
AcDbLine
10
290.000100000000
20
53.000000000000
30
0.0
11
290.000100000000
21
14.000000000000
31
0.0
0
LINE
5
6c0
100
AcDbEntity
8
0-0
6
CONTINUOUS
62
3
100
AcDbLine
10
290.000100000000
20
53.000000000000
30
0.0
11
405.000000000000
21
53.000000000000
31
0.0
0
LINE
5
6c1
100
AcDbEntity
8
0-0
6
CONTINUOUS
62
3
100
AcDbLine
10
290.000100000000
20
23.000000000000
30
0.0
11
405.000000000000
21
23.000000000000
31
0.0
0
LINE
5
6c2
100
AcDbEntity
8
0-0
6
CONTINUOUS
62
3
100
AcDbLine
10
347.500100000000
20
53.000000000000
30
0.0
11
347.500100000000
21
14.000000000000
31
0.0
0
LINE
5
6c3
100
AcDbEntity
8
0-0
6
CONTINUOUS
62
3
100
AcDbLine
10
341.500000000000
20
53.000000000000
30
0.0
11
341.500000000000
21
14.000000000000
31
0.0
0
LINE
5
6c4
100
AcDbEntity
8
0-0
6
CONTINUOUS
62
3
100
AcDbLine
10
395.000000000000
20
23.000000000000
30
0.0
11
395.000000000000
21
14.000000000000
31
0.0
0
LINE
5
6c5
100
AcDbEntity
8
0-0
6
CONTINUOUS
62
3
100
AcDbLine
10
363.500100000000
20
34.000000000000
30
0.0
11
363.500100000000
21
23.000000000000
31
0.0
0
LINE
5
6c6
100
AcDbEntity
8
0-0
6
CONTINUOUS
62
3
100
AcDbLine
10
368.500000000000
20
34.000000000000
30
0.0
11
368.500000000000
21
23.000000000000
31
0.0
0
LINE
5
6c7
100
AcDbEntity
8
0-0
6
CONTINUOUS
62
3
100
AcDbLine
10
384.000000000000
20
34.000000000000
30
0.0
11
384.000000000000
21
23.000000000000
31
0.0
0
LINE
5
6c8
100
AcDbEntity
8
0-0
6
CONTINUOUS
62
3
100
AcDbLine
10
389.000000000000
20
34.000000000000
30
0.0
11
389.000000000000
21
23.000000000000
31
0.0
0
LINE
5
6c9
100
AcDbEntity
8
0-0
6
CONTINUOUS
62
3
100
AcDbLine
10
341.500000000000
20
34.000000000000
30
0.0
11
405.000000000000
21
34.000000000000
31
0.0
0
LINE
5
6ca
100
AcDbEntity
8
0-0
6
CONTINUOUS
62
3
100
AcDbLine
10
290.000100000000
20
32.000000000000
30
0.0
11
341.500000000000
21
32.000000000000
31
0.0
0
LINE
5
6cb
100
AcDbEntity
8
0-0
6
CONTINUOUS
62
3
100
AcDbLine
10
290.000100000000
20
41.000000000000
30
0.0
11
341.500000000000
21
41.000000000000
31
0.0
0
LINE
5
6cc
100
AcDbEntity
8
0-0
6
CONTINUOUS
62
3
100
AcDbLine
10
295.500000000000
20
53.000000000000
30
0.0
11
295.500000000000
21
23.000000000000
31
0.0
0
LINE
5
6cd
100
AcDbEntity
8
0-0
6
CONTINUOUS
62
3
100
AcDbLine
10
321.000100000000
20
41.000000000000
30
0.0
11
321.000100000000
21
23.000000000000
31
0.0
0
LINE
5
6ce
100
AcDbEntity
8
0-0
6
CONTINUOUS
62
3
100
AcDbLine
10
315.500100000000
20
41.000000000000
30
0.0
11
315.500100000000
21
23.000000000000
31
0.0
0
LINE
5
6cf
100
AcDbEntity
8
0-0
6
CONTINUOUS
62
3
100
AcDbLine
10
396.500000000000
20
15.500000000000
30
0.0
11
400.000100000000
21
21.562200000000
31
0.0
0
LINE
5
6d0
100
AcDbEntity
8
0-0
6
CONTINUOUS
62
3
100
AcDbLine
10
403.500100000000
20
15.500000000000
30
0.0
11
400.000100000000
21
21.562200000000
31
0.0
0
LINE
5
6d1
100
AcDbEntity
8
0-0
6
CONTINUOUS
62
3
100
AcDbLine
10
396.500000000000
20
15.500000000000
30
0.0
11
403.500100000000
21
15.500000000000
31
0.0
0
LINE
5
6d2
100
AcDbEntity
8
0-0
6
CONTINUOUS
62
3
100
AcDbLine
10
292.340900000000
20
17.994400000000
30
0.0
11
295.605700000000
21
16.109400000000
31
0.0
0
LINE
5
6d3
100
AcDbEntity
8
0-0
6
CONTINUOUS
62
3
100
AcDbLine
10
293.365400000000
20
18.268900000000
30
0.0
11
296.341400000000
21
16.550700000000
31
0.0
0
LINE
5
6d4
100
AcDbEntity
8
0-0
6
CONTINUOUS
62
3
100
AcDbLine
10
294.389900000000
20
18.543500000000
30
0.0
11
296.812600000000
21
17.144600000000
31
0.0
0
LINE
5
6d5
100
AcDbEntity
8
0-0
6
CONTINUOUS
62
3
100
AcDbLine
10
292.623800000000
20
18.070200000000
30
0.0
11
291.999300000000
21
17.902900000000
31
0.0
0
LINE
5
6d6
100
AcDbEntity
8
0-0
6
CONTINUOUS
62
3
100
AcDbLine
10
293.382600000000
20
17.970300000000
30
0.0
11
296.127800000000
21
16.385400000000
31
0.0
0
LINE
5
6d7
100
AcDbEntity
8
0-0
6
CONTINUOUS
62
3
100
AcDbLine
10
294.407100000000
20
18.244800000000
30
0.0
11
296.683900000000
21
16.930400000000
31
0.0
0
LINE
5
6d8
100
AcDbEntity
8
0-0
6
CONTINUOUS
62
3
100
AcDbLine
10
295.431600000000
20
18.519400000000
30
0.0
11
296.975600000000
21
17.627900000000
31
0.0
0
LINE
5
6d9
100
AcDbEntity
8
0-0
6
CONTINUOUS
62
3
100
AcDbLine
10
293.648200000000
20
18.344700000000
30
0.0
11
292.870900000000
21
18.136500000000
31
0.0
0
LINE
5
6da
100
AcDbEntity
8
0-0
6
CONTINUOUS
62
3
100
AcDbLine
10
294.672800000000
20
18.619300000000
30
0.0
11
293.918300000000
21
18.417100000000
31
0.0
0
LINE
5
6db
100
AcDbEntity
8
0-0
6
CONTINUOUS
62
3
100
AcDbLine
10
353.250000000000
20
41.000000000000
30
0.0
11
399.250000000000
21
41.000000000000
31
0.0
0
LINE
5
6dc
100
AcDbEntity
8
0-0
6
CONTINUOUS
62
3
100
AcDbLine
10
361.250000000000
20
48.000000000000
30
0.0
11
392.333800000000
21
48.000000000000
31
0.0
0
ELLIPSE
  5
6dd
100
AcDbEntity
8
0-0
6
CONTINUOUS
62
3
100
AcDbEllipse
10
294.499300000000
20
17.902900000000
30
0.0
11
3.000000000000
21
0.000000000000
31
0.0
210
0.0
220
0.0
230
1.0
40
0.833300000000
41
0.000000000000
42
6.283185307180
0
ARC
5
6de
100
AcDbEntity
8
0-0
6
CONTINUOUS
62
3
100
AcDbCircle
10
292.882600000000
20
17.104300000000
30
0.0
40
1.000000000000
100
AcDbArc
50
60.000000000000
51
105.000000000000
0
ARC
5
6df
100
AcDbEntity
8
0-0
6
CONTINUOUS
62
3
100
AcDbCircle
10
293.907100000000
20
17.378800000000
30
0.0
40
1.000000000000
100
AcDbArc
50
60.000000000000
51
105.000000000000
0
ARC
5
6e0
100
AcDbEntity
8
0-0
6
CONTINUOUS
62
3
100
AcDbCircle
10
294.931600000000
20
17.653300000000
30
0.0
40
1.000000000000
100
AcDbArc
50
60.000000000000
51
105.000000000000
0
ELLIPSE
  5
6e1
100
AcDbEntity
8
0-0
6
CONTINUOUS
62
3
100
AcDbEllipse
10
294.499300000000
20
17.902900000000
30
0.0
11
2.500000000000
21
0.000000000000
31
0.0
210
0.0
220
0.0
230
1.0
40
0.800000000000
41
0.270792616483
42
6.145261525885
0
TEXT
5
6e2
100
AcDbEntity
8
0-0
62
7
370
-3
100
AcDbText
10
299.888
20
16.876
30
0.0
40
3.626
1
三重重工業株式会社
41
0.856
50
0.000
100
AcDbText
0
TEXT
5
6e3
100
AcDbEntity
8
0-0
62
7
370
-3
100
AcDbText
10
302.441
20
26.007
30
0.0
40
3.626
41
0.517
50
0.000
1
NTS
72
1
11
305.500
21
27.500
31
0.0
100
AcDbText
73
2
0
TEXT
5
6e4
100
AcDbEntity
8
0-0
62
7
370
-3
100
AcDbText
10
292.694
20
50.037
30
0.0
40
2.203
1
客先
41
0.856
50
0.000
  7
TATEGAKI
100
AcDbText
0
TEXT
5
6e5
100
AcDbEntity
8
0-0
62
7
370
-3
100
AcDbText
10
292.694
20
39.537
30
0.0
40
2.203
1
材質
41
0.856
50
0.000
  7
TATEGAKI
100
AcDbText
0
TEXT
5
6e6
100
AcDbEntity
8
0-0
62
7
370
-3
100
AcDbText
10
292.694
20
30.537
30
0.0
40
2.203
1
尺度
41
0.856
50
0.000
  7
TATEGAKI
100
AcDbText
0
TEXT
5
6e7
100
AcDbEntity
8
0-0
62
7
370
-3
100
AcDbText
10
344.444
20
47.991
30
0.0
40
2.203
1
名　称
41
0.856
50
0.000
  7
TATEGAKI
100
AcDbText
0
TEXT
5
6e8
100
AcDbEntity
8
0-0
62
7
370
-3
100
AcDbText
10
318.194
20
39.537
30
0.0
40
2.203
1
数量
41
0.856
50
0.000
  7
TATEGAKI
100
AcDbText
0
TEXT
5
6e9
100
AcDbEntity
8
0-0
62
7
370
-3
100
AcDbText
10
318.194
20
30.537
30
0.0
40
2.203
1
日付
41
0.856
50
0.000
  7
TATEGAKI
100
AcDbText
0
TEXT
5
6ea
100
AcDbEntity
8
0-0
62
7
370
-3
100
AcDbText
10
344.444
20
31.537
30
0.0
40
2.203
1
承認
41
0.856
50
0.000
  7
TATEGAKI
100
AcDbText
0
TEXT
5
6eb
100
AcDbEntity
8
0-0
62
7
370
-3
100
AcDbText
10
365.944
20
31.537
30
0.0
40
2.203
1
検図
41
0.856
50
0.000
  7
TATEGAKI
100
AcDbText
0
TEXT
5
6ec
100
AcDbEntity
8
0-0
62
7
370
-3
100
AcDbText
10
386.444
20
31.537
30
0.0
40
2.203
1
担当
41
0.856
50
0.000
  7
TATEGAKI
100
AcDbText
0
TEXT
5
6ed
100
AcDbEntity
8
0-0
62
7
370
-3
100
AcDbText
10
372.114
20
27.007
30
0.0
40
3.626
41
0.856
50
0.000
1
井福
72
1
11
376.250
21
28.500
31
0.0
100
AcDbText
73
2
0
TEXT
5
6ee
100
AcDbEntity
8
0-0
62
7
370
-3
100
AcDbText
10
392.864
20
27.007
30
0.0
40
3.626
41
0.856
50
0.000
1
平川
72
1
11
397.000
21
28.500
31
0.0
100
AcDbText
73
2
0
TEXT
5
6ef
100
AcDbEntity
8
0-0
62
7
370
-3
100
AcDbText
10
344.444
20
21.537
30
0.0
40
2.203
1
図番
41
0.856
50
0.000
  7
TATEGAKI
100
AcDbText
0
LINE
5
6f0
100
AcDbEntity
8
F-E_J_ADD
6
HIDDEN
62
7
100
AcDbLine
10
289.967944597189
20
47.000000000000
30
0.0
11
341.500000000000
21
47.000000000000
31
0.0
0
LINE
5
6f1
100
AcDbEntity
8
F-E_J_ADD
6
HIDDEN
62
7
100
AcDbLine
10
290.000100000000
20
36.500000000000
30
0.0
11
341.500000000000
21
36.500000000000
31
0.0
0
LINE
5
6f2
100
AcDbEntity
8
F-E_J_ADD
6
HIDDEN
62
7
100
AcDbLine
10
290.000100000000
20
27.500000000000
30
0.0
11
341.500000000000
21
27.500000000000
31
0.0
0
LINE
5
6f3
100
AcDbEntity
8
F-E_J_ADD
6
HIDDEN
62
7
100
AcDbLine
10
341.500000000000
20
28.500000000000
30
0.0
11
405.000000000000
21
28.500000000000
31
0.0
0
LINE
5
6f4
100
AcDbEntity
8
F-E_J_ADD
6
HIDDEN
62
7
100
AcDbLine
10
292.750050000000
20
53.000000000000
30
0.0
11
292.750050000000
21
23.000000000000
31
0.0
0
LINE
5
6f5
100
AcDbEntity
8
F-E_J_ADD
6
HIDDEN
62
7
100
AcDbLine
10
305.500050000000
20
41.000000000000
30
0.0
11
305.500050000000
21
23.000000000000
31
0.0
0
LINE
5
6f6
100
AcDbEntity
8
F-E_J_ADD
6
HIDDEN
62
7
100
AcDbLine
10
331.250050000000
20
41.000000000000
30
0.0
11
331.250050000000
21
23.000000000000
31
0.0
0
LINE
5
6f7
100
AcDbEntity
8
F-E_J_ADD
6
HIDDEN
62
7
100
AcDbLine
10
318.250100000000
20
23.000000000000
30
0.0
11
318.250100000000
21
41.000000000000
31
0.0
0
LINE
5
6f8
100
AcDbEntity
8
F-E_J_ADD
6
HIDDEN
62
7
100
AcDbLine
10
344.500050000000
20
53.000000000000
30
0.0
11
344.500050000000
21
14.000000000000
31
0.0
0
LINE
5
6f9
100
AcDbEntity
8
F-E_J_ADD
6
HIDDEN
62
7
100
AcDbLine
10
371.250050000000
20
23.000000000000
30
0.0
11
371.250050000000
21
14.000000000000
31
0.0
0
LINE
5
6fa
100
AcDbEntity
8
F-E_J_ADD
6
HIDDEN
62
7
100
AcDbLine
10
355.500100000000
20
23.000000000000
30
0.0
11
355.500100000000
21
34.000000000000
31
0.0
0
LINE
5
6fb
100
AcDbEntity
8
F-E_J_ADD
6
HIDDEN
62
7
100
AcDbLine
10
366.000050000000
20
23.000000000000
30
0.0
11
366.000050000000
21
34.000000000000
31
0.0
0
LINE
5
6fc
100
AcDbEntity
8
F-E_J_ADD
6
HIDDEN
62
7
100
AcDbLine
10
376.250000000000
20
23.000000000000
30
0.0
11
376.250000000000
21
34.000000000000
31
0.0
0
LINE
5
6fd
100
AcDbEntity
8
F-E_J_ADD
6
HIDDEN
62
7
100
AcDbLine
10
397.000000000000
20
23.000000000000
30
0.0
11
397.000000000000
21
34.000000000000
31
0.0
0
LINE
5
6fe
100
AcDbEntity
8
F-E_J_ADD
6
HIDDEN
62
7
100
AcDbLine
10
386.500000000000
20
23.000000000000
30
0.0
11
386.500000000000
21
34.000000000000
31
0.0
0
LINE
5
6ff
100
AcDbEntity
8
F-E_J_ADD
6
HIDDEN
62
7
100
AcDbLine
10
318.500000000000
20
41.000000000000
30
0.0
11
318.500000000000
21
53.000000000000
31
0.0
0
LINE
5
700
100
AcDbEntity
8
F-E_J_ADD
6
HIDDEN
62
7
100
AcDbLine
10
341.500000000000
20
43.500000000000
30
0.0
11
347.500100000000
21
43.500000000000
31
0.0
0
TEXT
5
701
100
AcDbEntity
8
0-0
62
7
370
-3
100
AcDbText
10
325.085
20
25.909
30
0.0
40
3.626
41
0.710
50
0.000
1
R5.6.1
72
1
11
331.375
21
27.402
31
0.0
100
AcDbText
73
2
0
LINE
5
702
100
AcDbEntity
8
F-E_J_ADD
6
HIDDEN
62
7
100
AcDbLine
10
405.000000000000
20
50.333300000000
30
0.0
11
347.500100000000
21
50.333300000000
31
0.0
0
LINE
5
703
100
AcDbEntity
8
F-E_J_ADD
6
HIDDEN
62
7
100
AcDbLine
10
405.000000000000
20
47.666700000000
30
0.0
11
347.500100000000
21
47.666700000000
31
0.0
0
LINE
5
704
100
AcDbEntity
8
F-E_J_ADD
6
HIDDEN
62
7
100
AcDbLine
10
405.000000000000
20
45.000000000000
30
0.0
11
347.500100000000
21
45.000000000000
31
0.0
0
LINE
5
705
100
AcDbEntity
8
F-E_J_ADD
6
HIDDEN
62
7
100
AcDbLine
10
405.000000000000
20
42.333300000000
30
0.0
11
347.500100000000
21
42.333300000000
31
0.0
0
LINE
5
706
100
AcDbEntity
8
F-E_J_ADD
6
HIDDEN
62
7
100
AcDbLine
10
405.000000000000
20
39.666700000000
30
0.0
11
347.500100000000
21
39.666700000000
31
0.0
0
LINE
5
707
100
AcDbEntity
8
F-E_J_ADD
6
HIDDEN
62
7
100
AcDbLine
10
405.000000000000
20
37.000000000000
30
0.0
11
347.500100000000
21
37.000000000000
31
0.0
0
LINE
5
708
100
AcDbEntity
8
F-E_J_ADD
6
HIDDEN
62
7
100
AcDbLine
10
341.500000000000
20
18.500000000000
30
0.0
11
405.000000000000
21
18.500000000000
31
0.0
0
LINE
5
709
100
AcDbEntity
8
F-E_J_ADD
6
HIDDEN
62
7
100
AcDbLine
10
400.000000000000
20
23.000000000000
30
0.0
11
400.000000000000
21
14.000000000000
31
0.0
0
TEXT
5
70a
100
AcDbEntity
8
0-0
62
7
370
-3
100
AcDbText
10
398.160
20
16.158
30
0.0
40
3.366
41
0.963
50
0.000
1
１
72
1
11
400.250
21
17.794
31
0.0
100
AcDbText
73
2
0
MTEXT
5
70b
100
AcDbEntity
8
2-E
62
7
370
-3
100
AcDbMText
10
235.434
20
75.117
30
0.0
40
2.081
41
0.000
71
7
72
1
1
\W0.972;水密ゴム　平型{\W0.700; 60x10t}
7
STANDARD
11
1.00000
21
0.00000
31
0.0
0
MTEXT
5
70c
100
AcDbEntity
8
2-E
62
7
370
-3
100
AcDbMText
10
234.667
20
59.117
30
0.0
40
2.081
41
0.000
71
7
72
1
1
\W0.972;皿ＢＴ＆ＮＴ{\W0.700;  M8}
7
STANDARD
11
1.00000
21
0.00000
31
0.0
0
MTEXT
5
70d
100
AcDbEntity
8
2-E
62
7
370
-3
100
AcDbMText
10
235.895
20
68.426
30
0.0
40
2.081
41
0.000
71
4
72
1
1
\W0.972;ゴム押え　{\W0.700;PL-6t(SUS304)}
7
STANDARD
11
1.00000
21
0.00000
31
0.0
0
TEXT
5
70e
100
AcDbEntity
8
2-B
62
7
370
-3
100
AcDbText
10
252.037
20
125.147
30
0.0
40
2.203
41
0.856
50
0.000
1
水圧方向
72
0
11
251.932
21
126.054
31
0.0
100
AcDbText
73
2
0
LINE
5
70f
100
AcDbEntity
8
2-E
6
CONTINUOUS
62
4
100
AcDbLine
10
230.356557659039
20
57.975985102298
30
0.0
11
269.463396122340
21
57.975985102298
31
0.0
0
LINE
5
710
100
AcDbEntity
8
2-E
6
CONTINUOUS
62
4
100
AcDbLine
10
230.356557659039
20
65.975985100778
30
0.0
11
269.463396122340
21
65.975985100778
31
0.0
0
LINE
5
711
100
AcDbEntity
8
2-E
6
CONTINUOUS
62
4
100
AcDbLine
10
230.356557659039
20
73.975985099258
30
0.0
11
269.463396122340
21
73.975985099258
31
0.0
0
MTEXT
5
712
100
AcDbEntity
8
9-E
62
7
370
-3
100
AcDbMText
10
38.532
20
240.537
30
0.0
40
2.081
41
0.000
71
7
72
1
1
\W0.972;上部{\W0.700;ﾋﾟｱ- C180x75x7}
7
STANDARD
11
1.00000
21
0.00000
31
0.0
0
LINE
5
713
100
AcDbEntity
8
9-1
6
CONTINUOUS
62
3
100
AcDbLine
10
90.912540375819
20
153.989895956539
30
0.0
11
91.912540375629
21
153.989895956539
31
0.0
0
ARC
5
714
100
AcDbEntity
8
9-0
6
CONTINUOUS
62
7
100
AcDbCircle
10
184.479309905366
20
86.906562635951
30
0.0
40
0.416666666588
100
AcDbArc
50
180.000000000000
51
270.000000000000
0
ARC
5
715
100
AcDbEntity
8
9-0
6
CONTINUOUS
62
7
100
AcDbCircle
10
184.479309905366
20
86.906562635951
30
0.0
40
0.416666666588
100
AcDbArc
50
180.000000000000
51
270.000000000000
0
POLYLINE
5
716
100
AcDbEntity
  8
9-E
6
CONTINUOUS
62
4
100
AcDb2dPolyline
66
1
10
0
20
0
70
1
40
0.400
41
0.400
0
VERTEX
5
717
100
AcDbEntity
  8
9-E
6
CONTINUOUS
62
4
100
AcDbVertex
100
AcDb2dVertex
10
95.159
20
222.934
30
0.0
42
1.000
0
VERTEX
5
718
100
AcDbEntity
  8
9-E
6
CONTINUOUS
62
4
100
AcDbVertex
100
AcDb2dVertex
10
95.559
20
222.934
30
0.0
42
1.000
0
SEQEND
5
719
100
AcDbEntity
  8
9-E
0
POLYLINE
5
71a
100
AcDbEntity
  8
9-E
6
CONTINUOUS
62
4
100
AcDb2dPolyline
66
1
10
0
20
0
70
1
40
0.400
41
0.400
0
VERTEX
5
71b
100
AcDbEntity
  8
9-E
6
CONTINUOUS
62
4
100
AcDbVertex
100
AcDb2dVertex
10
95.159
20
222.934
30
0.0
42
1.000
0
VERTEX
5
71c
100
AcDbEntity
  8
9-E
6
CONTINUOUS
62
4
100
AcDbVertex
100
AcDb2dVertex
10
95.559
20
222.934
30
0.0
42
1.000
0
SEQEND
5
71d
100
AcDbEntity
  8
9-E
0
LINE
5
71e
100
AcDbEntity
8
9-1
6
CONTINUOUS
62
3
100
AcDbLine
10
90.662540375866
20
152.739895956776
30
0.0
11
90.662540375866
21
149.823229290664
31
0.0
0
LINE
5
71f
100
AcDbEntity
8
9-1
6
CONTINUOUS
62
3
100
AcDbLine
10
90.662540375866
20
152.739895956776
30
0.0
11
90.912540375819
21
152.739895956776
31
0.0
0
LINE
5
720
100
AcDbEntity
8
9-1
6
CONTINUOUS
62
3
100
AcDbLine
10
90.662540375866
20
149.823229290664
30
0.0
11
90.912540375819
21
149.823229290664
31
0.0
0
LINE
5
721
100
AcDbEntity
8
9-1
6
CONTINUOUS
62
3
100
AcDbLine
10
89.495873709421
20
151.906562623601
30
0.0
11
89.495873709421
21
150.239895957251
31
0.0
0
LINE
5
722
100
AcDbEntity
8
9-1
6
CONTINUOUS
62
3
100
AcDbLine
10
89.495873709421
20
151.906562623601
30
0.0
11
90.662540375866
21
151.906562623601
31
0.0
0
LINE
5
723
100
AcDbEntity
8
9-1
6
CONTINUOUS
62
3
100
AcDbLine
10
89.495873709421
20
150.239895957251
30
0.0
11
90.662540375866
21
150.239895957251
31
0.0
0
LINE
5
724
100
AcDbEntity
8
9-1
6
CONTINUOUS
62
3
100
AcDbLine
10
91.912540375629
20
151.906562623601
30
0.0
11
91.995873708946
21
151.906562623601
31
0.0
0
LINE
5
725
100
AcDbEntity
8
9-1
6
CONTINUOUS
62
3
100
AcDbLine
10
91.912540375629
20
150.239895957251
30
0.0
11
91.995873708946
21
150.239895957251
31
0.0
0
LINE
5
726
100
AcDbEntity
8
9-1
6
CONTINUOUS
62
3
100
AcDbLine
10
122.912643250397
20
93.156562634764
30
0.0
11
93.329207042026
21
93.156562634764
31
0.0
0
LINE
5
727
100
AcDbEntity
8
9-1
6
CONTINUOUS
62
3
100
AcDbLine
10
95.745873708234
20
153.989895956539
30
0.0
11
94.745873708424
21
153.989895956539
31
0.0
0
LINE
5
728
100
AcDbEntity
8
9-1
6
CONTINUOUS
62
3
100
AcDbLine
10
95.995873708186
20
152.739895956776
30
0.0
11
95.995873708186
21
149.823229290664
31
0.0
0
LINE
5
729
100
AcDbEntity
8
9-1
6
CONTINUOUS
62
3
100
AcDbLine
10
95.995873708186
20
152.739895956776
30
0.0
11
95.745873708234
21
152.739895956776
31
0.0
0
LINE
5
72a
100
AcDbEntity
8
9-1
6
CONTINUOUS
62
3
100
AcDbLine
10
95.995873708186
20
149.823229290664
30
0.0
11
95.745873708234
21
149.823229290664
31
0.0
0
LINE
5
72b
100
AcDbEntity
8
9-1
6
CONTINUOUS
62
3
100
AcDbLine
10
97.162540374631
20
151.906562623601
30
0.0
11
97.162540374631
21
150.239895957251
31
0.0
0
LINE
5
72c
100
AcDbEntity
8
9-1
6
CONTINUOUS
62
3
100
AcDbLine
10
97.162540374631
20
151.906562623601
30
0.0
11
95.995873708186
21
151.906562623601
31
0.0
0
LINE
5
72d
100
AcDbEntity
8
9-1
6
CONTINUOUS
62
3
100
AcDbLine
10
97.162540374631
20
150.239895957251
30
0.0
11
95.995873708186
21
150.239895957251
31
0.0
0
LINE
5
72e
100
AcDbEntity
8
9-1
6
CONTINUOUS
62
3
100
AcDbLine
10
94.745873708424
20
151.906562623601
30
0.0
11
94.662540375106
21
151.906562623601
31
0.0
0
LINE
5
72f
100
AcDbEntity
8
9-1
6
CONTINUOUS
62
3
100
AcDbLine
10
94.745873708424
20
150.239895957251
30
0.0
11
94.662540375106
21
150.239895957251
31
0.0
0
LINE
5
730
100
AcDbEntity
8
9-0
6
CONTINUOUS
62
7
100
AcDbLine
10
184.479309905366
20
86.489895969364
30
0.0
11
184.645873691343
21
86.489895969364
31
0.0
0
LINE
5
731
100
AcDbEntity
8
9-0
6
CONTINUOUS
62
7
100
AcDbLine
10
184.062746119437
20
91.323229301779
30
0.0
11
184.062746119437
21
86.906562635951
31
0.0
0
POLYLINE
5
732
100
AcDbEntity
8
9-0
6
CONTINUOUS
62
  2
100
AcDb2dPolyline
66
1
10
0.0
20
0.0
30
0.0
70
0
0
VERTEX
5
733
100
AcDbEntity
8
9-0
6
CONTINUOUS
62
  2
100
AcDbVertex
100
AcDb2dVertex
10
119.745873703674
20
134.406562626926
30
0.0
0
VERTEX
5
734
100
AcDbEntity
8
9-0
6
CONTINUOUS
62
  2
100
AcDbVertex
100
AcDb2dVertex
10
119.745873703674
20
126.073229295176
30
0.0
0
VERTEX
5
735
100
AcDbEntity
8
9-0
6
CONTINUOUS
62
  2
100
AcDbVertex
100
AcDb2dVertex
10
121.079207036754
20
126.073229295176
30
0.0
0
VERTEX
5
736
100
AcDbEntity
8
9-0
6
CONTINUOUS
62
  2
100
AcDbVertex
100
AcDb2dVertex
10
121.079207036754
20
134.406562626926
30
0.0
0
VERTEX
5
737
100
AcDbEntity
8
9-0
6
CONTINUOUS
62
  2
100
AcDbVertex
100
AcDb2dVertex
10
119.745873703674
20
134.406562626926
30
0.0
0
SEQEND
5
738
100
AcDbEntity
8
9-0
0
LINE
5
739
100
AcDbEntity
8
9-0
6
CENTER2
62
2
100
AcDbLine
10
122.124988929559
20
130.239895961051
30
0.0
11
118.581058889080
21
130.239895961051
31
0.0
0
LINE
5
73a
100
AcDbEntity
8
9-1
6
CONTINUOUS
62
3
100
AcDbLine
10
181.062643239349
20
146.906562624551
30
0.0
11
182.062643239159
21
146.906562624551
31
0.0
0
LINE
5
73b
100
AcDbEntity
8
9-1
6
CONTINUOUS
62
3
100
AcDbLine
10
181.062643239349
20
146.906562624551
30
0.0
11
181.062643239349
21
93.156562634764
31
0.0
0
LINE
5
73c
100
AcDbEntity
8
9-1
6
CONTINUOUS
62
3
100
AcDbLine
10
182.062643239159
20
92.323126420930
30
0.0
11
182.895976572334
21
92.323126420930
31
0.0
0
POLYLINE
5
73d
100
AcDbEntity
8
9-1
6
CONTINUOUS
62
  3
100
AcDb2dPolyline
66
1
10
0.0
20
0.0
30
0.0
70
0
0
VERTEX
5
73e
100
AcDbEntity
8
9-1
6
CONTINUOUS
62
  3
100
AcDbVertex
100
AcDb2dVertex
10
182.062643239159
20
97.323126419980
30
0.0
0
VERTEX
5
73f
100
AcDbEntity
8
9-1
6
CONTINUOUS
62
  3
100
AcDbVertex
100
AcDb2dVertex
10
182.895976572334
20
97.323126419980
30
0.0
0
VERTEX
5
740
100
AcDbEntity
8
9-1
6
CONTINUOUS
62
  3
100
AcDbVertex
100
AcDb2dVertex
10
182.895976572334
20
92.323126420930
30
0.0
0
SEQEND
5
741
100
AcDbEntity
8
9-1
0
LINE
5
742
100
AcDbEntity
8
9-1
6
CONTINUOUS
62
3
100
AcDbLine
10
182.895976572334
20
96.406562634146
30
0.0
11
183.395873691580
21
96.406562634146
31
0.0
0
LINE
5
743
100
AcDbEntity
8
9-1
6
CENTER2
62
3
100
AcDbLine
10
179.841038301309
20
94.823126420455
30
0.0
11
183.733528012504
21
94.823126420455
31
0.0
0
LINE
5
744
100
AcDbEntity
8
9-1
6
CONTINUOUS
62
3
100
AcDbLine
10
182.895976572334
20
93.239895968081
30
0.0
11
183.395873691580
21
93.239895968081
31
0.0
0
LINE
5
745
100
AcDbEntity
8
9-0
6
CENTER2
62
2
100
AcDbLine
10
120.412540370214
20
124.823435056730
30
0.0
11
120.412540370214
21
135.968291021691
31
0.0
0
LINE
5
746
100
AcDbEntity
8
9-1
6
CONTINUOUS
62
3
100
AcDbLine
10
90.912540375819
20
153.989895956539
30
0.0
11
90.912540375819
21
145.239895958201
31
0.0
0
LINE
5
747
100
AcDbEntity
8
9-1
6
CONTINUOUS
62
3
100
AcDbLine
10
91.912540375629
20
153.989895956539
30
0.0
11
91.912540375629
21
145.239895958201
31
0.0
0
LINE
5
748
100
AcDbEntity
8
9-1
6
CONTINUOUS
62
3
100
AcDbLine
10
94.745873708424
20
153.989895956539
30
0.0
11
94.745873708424
21
145.239895958201
31
0.0
0
LINE
5
749
100
AcDbEntity
8
9-1
6
CONTINUOUS
62
3
100
AcDbLine
10
95.745873708234
20
153.989895956539
30
0.0
11
95.745873708234
21
145.239895958201
31
0.0
0
LINE
5
74a
100
AcDbEntity
8
9-A
6
CONTINUOUS
62
2
100
AcDbLine
10
174.264597973151
20
211.870245739780
30
0.0
11
174.660688508055
21
216.395965903529
31
0.0
0
LINE
5
74b
100
AcDbEntity
8
9-A
6
CONTINUOUS
62
2
100
AcDbLine
10
173.849680277756
20
211.489895945614
30
0.0
11
173.645976574091
21
211.489895945614
31
0.0
0
LINE
5
74c
100
AcDbEntity
8
9-A
6
CONTINUOUS
62
2
100
AcDbLine
10
188.027252291523
20
211.870245739780
30
0.0
11
187.631264637278
21
216.395965903529
31
0.0
0
LINE
5
74d
100
AcDbEntity
8
9-A
6
CONTINUOUS
62
2
100
AcDbLine
10
188.442478628893
20
211.489895945614
30
0.0
11
188.645976571241
21
211.489895945614
31
0.0
0
LINE
5
74e
100
AcDbEntity
8
9-A
6
CONTINUOUS
62
2
100
AcDbLine
10
61.662540381376
20
211.489895945614
30
0.0
11
93.329207042026
21
211.489895945614
31
0.0
0
LINE
5
74f
100
AcDbEntity
8
9-A
6
CONTINUOUS
62
2
100
AcDbLine
10
61.662540381376
20
217.739895944426
30
0.0
11
61.662540381376
21
211.489895945614
31
0.0
0
LINE
5
750
100
AcDbEntity
8
9-0
6
CONTINUOUS
62
7
100
AcDbLine
10
123.412540369644
20
217.156562611204
30
0.0
11
123.412540369644
21
92.739895968176
31
0.0
0
LINE
5
751
100
AcDbEntity
8
9-A
6
CONTINUOUS
62
2
100
AcDbLine
10
124.995873702676
20
217.739895944426
30
0.0
11
124.995873702676
21
211.489895945614
31
0.0
0
LINE
5
752
100
AcDbEntity
8
9-0
6
CONTINUOUS
62
7
100
AcDbLine
10
68.329207046776
20
211.489895945614
30
0.0
11
68.329207046776
21
92.739895968176
31
0.0
0
LINE
5
753
100
AcDbEntity
8
9-A
6
CONTINUOUS
62
2
100
AcDbLine
10
174.660688508055
20
216.395965903529
30
0.0
11
174.660688508055
21
210.975286892213
31
0.0
0
LINE
5
754
100
AcDbEntity
8
9-A
6
CONTINUOUS
62
2
100
AcDbLine
10
177.645976573331
20
207.989895946279
30
0.0
11
174.660688508055
21
210.975286892213
31
0.0
0
LINE
5
755
100
AcDbEntity
8
9-A
6
CONTINUOUS
62
2
100
AcDbLine
10
187.631264637278
20
216.395965903529
30
0.0
11
187.631264637278
21
210.975286892213
31
0.0
0
LINE
5
756
100
AcDbEntity
8
9-A
6
CONTINUOUS
62
2
100
AcDbLine
10
184.645873691343
20
207.989895946279
30
0.0
11
187.631264637278
21
210.975286892213
31
0.0
0
LINE
5
757
100
AcDbEntity
8
9-A
6
CONTINUOUS
62
2
100
AcDbLine
10
67.829309927530
20
211.489895945614
30
0.0
11
67.829309927530
21
207.989895946279
31
0.0
0
LINE
5
758
100
AcDbEntity
8
9-A
6
CONTINUOUS
62
2
100
AcDbLine
10
68.329207046776
20
207.989895946279
30
0.0
11
67.829309927530
21
207.989895946279
31
0.0
0
LINE
5
759
100
AcDbEntity
8
9-A
6
DOT
62
2
100
AcDbLine
10
67.329207046966
20
216.656562611299
30
0.0
11
63.245873714409
21
216.656562611299
31
0.0
0
LINE
5
75a
100
AcDbEntity
8
9-A
6
DOT
62
2
100
AcDbLine
10
67.829309927530
20
216.156665492052
30
0.0
11
67.829309927530
21
211.489895945614
31
0.0
0
LINE
5
75b
100
AcDbEntity
8
9-A
6
DOT
62
2
100
AcDbLine
10
67.329309927625
20
217.156562611204
30
0.0
11
61.662540381376
21
217.156562611204
31
0.0
0
LINE
5
75c
100
AcDbEntity
8
9-A
6
DOT
62
2
100
AcDbLine
10
68.329207046776
20
216.156562611394
30
0.0
11
68.329207046776
21
211.489895945614
31
0.0
0
LINE
5
75d
100
AcDbEntity
8
9-A
6
DOT
62
2
100
AcDbLine
10
67.329309927625
20
217.156562611204
30
0.0
11
93.329207042026
21
217.156562611204
31
0.0
0
LINE
5
75e
100
AcDbEntity
8
9-A
6
DOT
62
2
100
AcDbLine
10
119.329207037086
20
216.656562611299
30
0.0
11
123.412540369644
21
216.656562611299
31
0.0
0
LINE
5
75f
100
AcDbEntity
8
9-A
6
CONTINUOUS
62
4
100
AcDbLine
10
63.841655607300
20
218.573229277601
30
0.0
11
66.150091820853
21
218.573229277601
31
0.0
0
LINE
5
760
100
AcDbEntity
8
9-A
6
CONTINUOUS
62
4
100
AcDbLine
10
63.841655607300
20
217.739895944426
30
0.0
11
63.841655607300
21
218.573229277601
31
0.0
0
LINE
5
761
100
AcDbEntity
8
9-A
6
CONTINUOUS
62
4
100
AcDbLine
10
66.150091820853
20
217.739895944426
30
0.0
11
66.150091820853
21
218.573229277601
31
0.0
0
LINE
5
762
100
AcDbEntity
8
9-A
6
CONTINUOUS
62
4
100
AcDbLine
10
64.329207047536
20
218.573229277601
30
0.0
11
64.329207047536
21
217.739895944426
31
0.0
0
LINE
5
763
100
AcDbEntity
8
9-A
6
CONTINUOUS
62
4
100
AcDbLine
10
65.662540380616
20
218.573229277601
30
0.0
11
65.662540380616
21
217.739895944426
31
0.0
0
LINE
5
764
100
AcDbEntity
8
9-A
6
CENTER2
62
2
100
AcDbLine
10
64.995873714076
20
219.360883598439
30
0.0
11
64.995873714076
21
215.635060553879
31
0.0
0
LINE
5
765
100
AcDbEntity
8
9-A
6
CONTINUOUS
62
4
100
AcDbLine
10
122.816655596094
20
218.573229277601
30
0.0
11
120.508322263200
21
218.573229277601
31
0.0
0
LINE
5
766
100
AcDbEntity
8
9-A
6
CONTINUOUS
62
4
100
AcDbLine
10
122.816655596094
20
217.739895944426
30
0.0
11
122.816655596094
21
218.573229277601
31
0.0
0
LINE
5
767
100
AcDbEntity
8
9-A
6
CONTINUOUS
62
4
100
AcDbLine
10
120.508322263200
20
217.739895944426
30
0.0
11
120.508322263200
21
218.573229277601
31
0.0
0
LINE
5
768
100
AcDbEntity
8
9-A
6
CONTINUOUS
62
4
100
AcDbLine
10
122.329104155858
20
218.573229277601
30
0.0
11
122.329104155858
21
217.739895944426
31
0.0
0
LINE
5
769
100
AcDbEntity
8
9-A
6
CONTINUOUS
62
4
100
AcDbLine
10
120.995770822778
20
218.573229277601
30
0.0
11
120.995770822778
21
217.739895944426
31
0.0
0
LINE
5
76a
100
AcDbEntity
8
9-A
6
CENTER2
62
2
100
AcDbLine
10
121.662437489318
20
219.360883598439
30
0.0
11
121.662437489318
21
215.635060553879
31
0.0
0
LINE
5
76b
100
AcDbEntity
8
9-A
6
DOT
62
2
100
AcDbLine
10
118.829207037181
20
216.156665492052
30
0.0
11
118.829207037181
21
207.989895946279
31
0.0
0
LINE
5
76c
100
AcDbEntity
8
9-A
6
DOT
62
2
100
AcDbLine
10
118.329104156618
20
207.989895946279
30
0.0
11
118.829207037181
21
207.989895946279
31
0.0
0
LINE
5
76d
100
AcDbEntity
8
9-A
6
CONTINUOUS
62
2
100
AcDbLine
10
124.995873702676
20
211.489895945614
30
0.0
11
124.162540369501
21
211.489895945614
31
0.0
0
LINE
5
76e
100
AcDbEntity
8
9-A
6
DOT
62
2
100
AcDbLine
10
124.162540369501
20
211.489895945614
30
0.0
11
118.329207037276
21
211.489895945614
31
0.0
0
LINE
5
76f
100
AcDbEntity
8
9-A
6
CONTINUOUS
62
3
100
AcDbLine
10
90.912540375819
20
145.239895958201
30
0.0
11
91.912540375629
21
145.239895958201
31
0.0
0
LINE
5
770
100
AcDbEntity
8
9-A
6
CONTINUOUS
62
3
100
AcDbLine
10
94.745873708424
20
145.239895958201
30
0.0
11
95.745873708234
21
145.239895958201
31
0.0
0
LINE
5
771
100
AcDbEntity
8
9-0
6
CONTINUOUS
62
7
100
AcDbLine
10
118.329207037276
20
217.156562611204
30
0.0
11
118.329207037276
21
146.906562624551
31
0.0
0
LINE
5
772
100
AcDbEntity
8
9-A
6
DOT
62
3
100
AcDbLine
10
68.329207046776
20
93.156562634764
30
0.0
11
63.745873714314
21
93.156562634764
31
0.0
0
LINE
5
773
100
AcDbEntity
8
9-0
6
CONTINUOUS
62
2
100
AcDbLine
10
178.895976573094
20
134.406562626926
30
0.0
11
178.395976573189
21
134.406562626926
31
0.0
0
LINE
5
774
100
AcDbEntity
8
9-4
6
CONTINUOUS
62
2
100
AcDbLine
10
178.895976573094
20
134.406562626926
30
0.0
11
179.396079453657
21
132.656562627259
31
0.0
0
LINE
5
775
100
AcDbEntity
8
9-0
6
CONTINUOUS
62
2
100
AcDbLine
10
181.062643239349
20
134.406562626926
30
0.0
11
180.229309906174
21
134.406562626926
31
0.0
0
LINE
5
776
100
AcDbEntity
8
9-4
6
CONTINUOUS
62
2
100
AcDbLine
10
180.229309906174
20
134.406562626926
30
0.0
11
179.396079453657
21
131.489895960814
31
0.0
0
LINE
5
777
100
AcDbEntity
8
9-4
6
CONTINUOUS
62
2
100
AcDbLine
10
179.396079453657
20
132.656562627259
30
0.0
11
179.396079453657
21
130.239895961051
31
0.0
0
LINE
5
778
100
AcDbEntity
8
9-0
6
CONTINUOUS
62
2
100
AcDbLine
10
178.895976573094
20
126.073229295176
30
0.0
11
178.395976573189
21
126.073229295176
31
0.0
0
LINE
5
779
100
AcDbEntity
8
9-4
6
CONTINUOUS
62
2
100
AcDbLine
10
178.895976573094
20
126.073229295176
30
0.0
11
179.396079453657
21
127.823229294844
31
0.0
0
LINE
5
77a
100
AcDbEntity
8
9-0
6
CONTINUOUS
62
2
100
AcDbLine
10
181.062643239349
20
126.073229295176
30
0.0
11
180.229309906174
21
126.073229295176
31
0.0
0
LINE
5
77b
100
AcDbEntity
8
9-4
6
CONTINUOUS
62
2
100
AcDbLine
10
180.229309906174
20
126.073229295176
30
0.0
11
179.396079453657
21
128.989895961289
31
0.0
0
LINE
5
77c
100
AcDbEntity
8
9-4
6
CONTINUOUS
62
2
100
AcDbLine
10
179.396079453657
20
127.823229294844
30
0.0
11
179.396079453657
21
130.239895961051
31
0.0
0
LINE
5
77d
100
AcDbEntity
8
9-0
6
CONTINUOUS
62
2
100
AcDbLine
10
179.229309906364
20
105.656562632389
30
0.0
11
178.395976573189
21
105.656562632389
31
0.0
0
LINE
5
77e
100
AcDbEntity
8
9-4
6
CONTINUOUS
62
2
100
AcDbLine
10
179.229309906364
20
105.656562632389
30
0.0
11
179.729412786927
21
103.906459752063
31
0.0
0
LINE
5
77f
100
AcDbEntity
8
9-0
6
CONTINUOUS
62
2
100
AcDbLine
10
181.062643239349
20
105.656562632389
30
0.0
11
180.562643239444
21
105.656562632389
31
0.0
0
LINE
5
780
100
AcDbEntity
8
9-4
6
CONTINUOUS
62
2
100
AcDbLine
10
180.562643239444
20
105.656562632389
30
0.0
11
179.729412786927
21
102.739895966276
31
0.0
0
LINE
5
781
100
AcDbEntity
8
9-4
6
CONTINUOUS
62
2
100
AcDbLine
10
179.729412786927
20
103.906459752063
30
0.0
11
179.729412786927
21
101.489793085855
31
0.0
0
LINE
5
782
100
AcDbEntity
8
9-0
6
CONTINUOUS
62
2
100
AcDbLine
10
179.229309906364
20
97.323126419980
30
0.0
11
178.395976573189
21
97.323126419980
31
0.0
0
LINE
5
783
100
AcDbEntity
8
9-4
6
CONTINUOUS
62
2
100
AcDbLine
10
179.229309906364
20
97.323126419980
30
0.0
11
179.729412786927
21
99.073126419648
31
0.0
0
LINE
5
784
100
AcDbEntity
8
9-0
6
CONTINUOUS
62
2
100
AcDbLine
10
181.062643239349
20
97.323126419980
30
0.0
11
180.562643239444
21
97.323126419980
31
0.0
0
LINE
5
785
100
AcDbEntity
8
9-4
6
CONTINUOUS
62
2
100
AcDbLine
10
180.562643239444
20
97.323126419980
30
0.0
11
179.729412786927
21
100.239895966751
31
0.0
0
LINE
5
786
100
AcDbEntity
8
9-4
6
CONTINUOUS
62
2
100
AcDbLine
10
179.729412786927
20
99.073126419648
30
0.0
11
179.729412786927
21
101.489793085855
31
0.0
0
LINE
5
787
100
AcDbEntity
8
9-0
6
CENTER2
62
2
100
AcDbLine
10
181.716038300953
20
101.489793085855
30
0.0
11
177.838774927204
21
101.489793085855
31
0.0
0
LINE
5
788
100
AcDbEntity
8
9-0
6
CENTER2
62
2
100
AcDbLine
10
181.716038300953
20
130.239895961051
30
0.0
11
177.838774927204
21
130.239895961051
31
0.0
0
LINE
5
789
100
AcDbEntity
8
9-1
6
CONTINUOUS
62
3
100
AcDbLine
10
122.912643250397
20
146.906562624551
30
0.0
11
122.912643250397
21
93.156562634764
31
0.0
0
LINE
5
78a
100
AcDbEntity
8
9-6
6
DOT
62
3
100
AcDbLine
10
68.329207046776
20
146.906562624551
30
0.0
11
63.745873714314
21
146.906562624551
31
0.0
0
LINE
5
78b
100
AcDbEntity
8
9-1
6
CONTINUOUS
62
3
100
AcDbLine
10
182.062643239159
20
93.156562634764
30
0.0
11
181.062643239349
21
93.156562634764
31
0.0
0
LINE
5
78c
100
AcDbEntity
8
9-0
6
CONTINUOUS
62
7
100
AcDbLine
10
183.895976572144
20
92.739793087518
30
0.0
11
183.895976572144
21
217.156562611204
31
0.0
0
LINE
5
78d
100
AcDbEntity
8
9-1
6
CONTINUOUS
62
3
100
AcDbLine
10
182.062643239159
20
146.906562624551
30
0.0
11
182.062643239159
21
92.323126420930
31
0.0
0
LINE
5
78e
100
AcDbEntity
8
9-1
6
CONTINUOUS
62
3
100
AcDbLine
10
91.995873708946
20
148.156562624314
30
0.0
11
93.329207042026
21
148.156562624314
31
0.0
0
LINE
5
78f
100
AcDbEntity
8
9-1
6
CONTINUOUS
62
3
100
AcDbLine
10
94.662540375106
20
148.156562624314
30
0.0
11
93.329207042026
21
148.156562624314
31
0.0
0
LINE
5
790
100
AcDbEntity
8
9-1
6
CENTER2
62
3
100
AcDbLine
10
88.941449841214
20
151.073229290426
30
0.0
11
93.329207042026
21
151.073229290426
31
0.0
0
LINE
5
791
100
AcDbEntity
8
9-1
6
CENTER2
62
3
100
AcDbLine
10
97.692067123502
20
151.073229290426
30
0.0
11
93.329207042026
21
151.073229290426
31
0.0
0
LINE
5
792
100
AcDbEntity
8
9-1
6
CONTINUOUS
62
3
100
AcDbLine
10
68.329207046776
20
146.906562624551
30
0.0
11
90.912540375819
21
146.906562624551
31
0.0
0
LINE
5
793
100
AcDbEntity
8
9-1
6
CONTINUOUS
62
3
100
AcDbLine
10
91.912540375629
20
146.906562624551
30
0.0
11
93.329207042026
21
146.906562624551
31
0.0
0
LINE
5
794
100
AcDbEntity
8
9-1
6
CONTINUOUS
62
3
100
AcDbLine
10
94.745873708424
20
146.906562624551
30
0.0
11
93.329207042026
21
146.906562624551
31
0.0
0
LINE
5
795
100
AcDbEntity
8
9-1
6
CONTINUOUS
62
3
100
AcDbLine
10
122.912643250397
20
146.906562624551
30
0.0
11
95.745873708234
21
146.906562624551
31
0.0
0
LINE
5
796
100
AcDbEntity
8
9-A
6
CONTINUOUS
62
2
100
AcDbLine
10
118.329207037276
20
211.489895945614
30
0.0
11
94.662540375106
21
211.489895945614
31
0.0
0
LINE
5
797
100
AcDbEntity
8
9-E
6
CONTINUOUS
62
2
100
AcDbLine
10
92.162540375581
20
211.489895945614
30
0.0
11
92.162540375581
21
176.073229285676
31
0.0
0
LINE
5
798
100
AcDbEntity
8
9-E
6
CONTINUOUS
62
2
100
AcDbLine
10
179.812643239586
20
176.073229285676
30
0.0
11
182.479309905746
21
176.073229285676
31
0.0
0
LINE
5
799
100
AcDbEntity
8
9-E
6
CONTINUOUS
62
2
100
AcDbLine
10
179.979309906221
20
217.156562611204
30
0.0
11
179.979309906221
21
176.073229285676
31
0.0
0
LINE
5
79a
100
AcDbEntity
8
9-E
6
CONTINUOUS
62
2
100
AcDbLine
10
182.312643239111
20
217.156562611204
30
0.0
11
182.312643239111
21
176.073229285676
31
0.0
0
LINE
5
79b
100
AcDbEntity
8
9-A
6
DOT
62
2
100
AcDbLine
10
174.726943652075
20
216.656562611299
30
0.0
11
177.645976573331
21
216.656562611299
31
0.0
0
LINE
5
79c
100
AcDbEntity
8
9-A
6
DOT
62
2
100
AcDbLine
10
187.564906612599
20
216.656562611299
30
0.0
11
184.645873691343
21
216.656562611299
31
0.0
0
LINE
5
79d
100
AcDbEntity
8
9-A
6
CONTINUOUS
62
2
100
AcDbLine
10
61.662540381376
20
217.739895944426
30
0.0
11
93.329207042026
21
217.739895944426
31
0.0
0
LINE
5
79e
100
AcDbEntity
8
9-A
6
CONTINUOUS
62
2
100
AcDbLine
10
124.995873702676
20
217.739895944426
30
0.0
11
93.329207042026
21
217.739895944426
31
0.0
0
LINE
5
79f
100
AcDbEntity
8
9-A
6
CONTINUOUS
62
2
100
AcDbLine
10
124.995873702676
20
217.156562611204
30
0.0
11
94.662540375106
21
217.156562611204
31
0.0
0
LINE
5
7a0
100
AcDbEntity
8
9-E
6
CONTINUOUS
62
3
100
AcDbLine
10
182.062643239159
20
97.303373333564
30
0.0
11
182.082499206233
21
97.323126419980
31
0.0
0
LINE
5
7a1
100
AcDbEntity
8
9-E
6
DOT
62
3
100
AcDbLine
10
183.062643238969
20
95.156459753725
30
0.0
11
183.395873691580
21
95.489793086995
31
0.0
0
LINE
5
7a2
100
AcDbEntity
8
9-E
6
DOT
62
3
100
AcDbLine
10
183.062643238969
20
94.489895967844
30
0.0
11
183.395873691580
21
94.156459753915
31
0.0
0
LINE
5
7a3
100
AcDbEntity
8
9-E
6
DOT
62
3
100
AcDbLine
10
183.062643238969
20
95.156459753725
30
0.0
11
183.062643238969
21
94.489895967844
31
0.0
0
LINE
5
7a4
100
AcDbEntity
8
9-E
6
DOT
62
3
100
AcDbLine
10
181.062643239349
20
94.489895967844
30
0.0
11
183.062643238969
21
94.489895967844
31
0.0
0
LINE
5
7a5
100
AcDbEntity
8
9-E
6
DOT
62
3
100
AcDbLine
10
181.062643239349
20
95.156459753725
30
0.0
11
183.062643238969
21
95.156459753725
31
0.0
0
LINE
5
7a6
100
AcDbEntity
8
9-A
6
DOT
62
3
100
AcDbLine
10
63.745873714314
20
146.906562624551
30
0.0
11
63.745873714314
21
93.156562634764
31
0.0
0
LINE
5
7a7
100
AcDbEntity
8
9-E
6
CONTINUOUS
62
2
100
AcDbLine
10
91.995873708946
20
211.489895945614
30
0.0
11
91.995873708946
21
148.156562624314
31
0.0
0
LINE
5
7a8
100
AcDbEntity
8
9-0
6
CONTINUOUS
62
7
100
AcDbLine
10
177.645976573331
20
217.156562611204
30
0.0
11
177.645976573331
21
92.739793087518
31
0.0
0
LINE
5
7a9
100
AcDbEntity
8
9-E
6
CONTINUOUS
62
2
100
AcDbLine
10
179.812643239586
20
217.156562611204
30
0.0
11
179.812643239586
21
153.989895956539
31
0.0
0
LINE
5
7aa
100
AcDbEntity
8
9-E
6
CONTINUOUS
62
2
100
AcDbLine
10
182.479309905746
20
217.156562611204
30
0.0
11
182.479309905746
21
153.989895956539
31
0.0
0
LINE
5
7ab
100
AcDbEntity
8
9-E
6
CONTINUOUS
62
2
100
AcDbLine
10
94.662540375106
20
217.739895944426
30
0.0
11
94.662540375106
21
148.156562624314
31
0.0
0
LINE
5
7ac
100
AcDbEntity
8
9-E
6
CONTINUOUS
62
2
100
AcDbLine
10
94.495873708471
20
217.739895944426
30
0.0
11
94.495873708471
21
176.073229285676
31
0.0
0
LINE
5
7ad
100
AcDbEntity
8
9-E
6
CONTINUOUS
62
2
100
AcDbLine
10
94.662540375106
20
176.073229285676
30
0.0
11
91.995873708946
21
176.073229285676
31
0.0
0
LINE
5
7ae
100
AcDbEntity
8
9-1
6
CONTINUOUS
62
3
100
AcDbLine
10
183.395873691580
20
96.406562634146
30
0.0
11
183.395873691580
21
93.239895968081
31
0.0
0
LINE
5
7af
100
AcDbEntity
8
9-E
6
CONTINUOUS
62
2
100
AcDbLine
10
182.325811963389
20
92.323126420930
30
0.0
11
182.895976572334
21
92.893291029875
31
0.0
0
LINE
5
7b0
100
AcDbEntity
8
9-E
6
CONTINUOUS
62
2
100
AcDbLine
10
182.207910728843
20
92.323126420930
30
0.0
11
182.895976572334
21
93.011192264421
31
0.0
0
LINE
5
7b1
100
AcDbEntity
8
9-E
6
CONTINUOUS
62
2
100
AcDbLine
10
182.062643239159
20
93.238455638863
30
0.0
11
182.895976572334
21
94.071788972038
31
0.0
0
LINE
5
7b2
100
AcDbEntity
8
9-E
6
CONTINUOUS
62
2
100
AcDbLine
10
182.062643239159
20
93.356356873409
30
0.0
11
182.895976572334
21
94.189690206584
31
0.0
0
LINE
5
7b3
100
AcDbEntity
8
9-E
6
CONTINUOUS
62
2
100
AcDbLine
10
182.062643239159
20
94.416953581026
30
0.0
11
182.895976572334
21
95.250286914201
31
0.0
0
LINE
5
7b4
100
AcDbEntity
8
9-E
6
CONTINUOUS
62
2
100
AcDbLine
10
182.062643239159
20
94.534854815572
30
0.0
11
182.895976572334
21
95.368188148747
31
0.0
0
LINE
5
7b5
100
AcDbEntity
8
9-E
6
CONTINUOUS
62
2
100
AcDbLine
10
182.062643239159
20
95.595451523189
30
0.0
11
182.895976572334
21
96.428887737022
31
0.0
0
LINE
5
7b6
100
AcDbEntity
8
9-E
6
CONTINUOUS
62
2
100
AcDbLine
10
182.062643239159
20
95.713352757735
30
0.0
11
182.895976572334
21
96.546686090910
31
0.0
0
LINE
5
7b7
100
AcDbEntity
8
9-E
6
CONTINUOUS
62
2
100
AcDbLine
10
182.062643239159
20
96.773949465352
30
0.0
11
182.611923074445
21
97.323126419980
31
0.0
0
LINE
5
7b8
100
AcDbEntity
8
9-E
6
CONTINUOUS
62
2
100
AcDbLine
10
182.062643239159
20
96.891850699897
30
0.0
11
182.494021839900
21
97.323126419980
31
0.0
0
LINE
5
7b9
100
AcDbEntity
8
9-A
6
CONTINUOUS
62
2
100
AcDbLine
10
186.801223485172
20
217.156562611204
30
0.0
11
175.490729660160
21
217.156562611204
31
0.0
0
LINE
5
7ba
100
AcDbEntity
8
9-E
6
CONTINUOUS
62
2
100
AcDbLine
10
62.495873714551
20
86.489895969364
30
0.0
11
124.162540369501
21
86.489895969364
31
0.0
0
LINE
5
7bb
100
AcDbEntity
8
9-0
6
CONTINUOUS
62
7
100
AcDbLine
10
124.162540369501
20
217.156562611204
30
0.0
11
124.162540369501
21
86.489895969364
31
0.0
0
LINE
5
7bc
100
AcDbEntity
8
9-E
6
CONTINUOUS
62
2
100
AcDbLine
10
62.495873714551
20
92.156562634954
30
0.0
11
124.162540369501
21
92.156562634954
31
0.0
0
LINE
5
7bd
100
AcDbEntity
8
9-0
6
CENTER2
62
7
100
AcDbLine
10
93.329104161368
20
250.728990588364
30
0.0
11
93.329104161368
21
81.981562636887
31
0.0
0
LINE
5
7be
100
AcDbEntity
8
9-0
6
CONTINUOUS
62
7
100
AcDbLine
10
192.979207023093
20
92.739793087518
30
0.0
11
176.312643240251
21
92.739793087518
31
0.0
0
LINE
5
7bf
100
AcDbEntity
8
9-E
6
CONTINUOUS
62
2
100
AcDbLine
10
192.979207023093
20
159.406459741518
30
0.0
11
184.645873691343
21
159.406459741518
31
0.0
0
LINE
5
7c0
100
AcDbEntity
8
9-0
6
CENTER2
62
7
100
AcDbLine
10
119.579207037039
20
94.823229301114
30
0.0
11
68.329207046776
21
94.823229301114
31
0.0
0
LINE
5
7c1
100
AcDbEntity
8
9-E
6
CENTER2
62
2
100
AcDbLine
10
118.329207037276
20
144.406562625026
30
0.0
11
118.329207037276
21
93.573229301351
31
0.0
0
LINE
5
7c2
100
AcDbEntity
8
9-E
6
CONTINUOUS
62
2
100
AcDbLine
10
121.079207036754
20
131.489895960814
30
0.0
11
119.745873703674
21
131.489895960814
31
0.0
0
LINE
5
7c3
100
AcDbEntity
8
9-E
6
CONTINUOUS
62
2
100
AcDbLine
10
121.079207036754
20
128.989895961289
30
0.0
11
119.745873703674
21
128.989895961289
31
0.0
0
POLYLINE
5
7c4
100
AcDbEntity
8
9-0
6
CONTINUOUS
62
  2
100
AcDb2dPolyline
66
1
10
0.0
20
0.0
30
0.0
70
0
0
VERTEX
5
7c5
100
AcDbEntity
8
9-0
6
CONTINUOUS
62
  2
100
AcDbVertex
100
AcDb2dVertex
10
119.745873703674
20
105.656562632389
30
0.0
0
VERTEX
5
7c6
100
AcDbEntity
8
9-0
6
CONTINUOUS
62
  2
100
AcDbVertex
100
AcDb2dVertex
10
119.745873703674
20
97.323229300639
30
0.0
0
VERTEX
5
7c7
100
AcDbEntity
8
9-0
6
CONTINUOUS
62
  2
100
AcDbVertex
100
AcDb2dVertex
10
121.079207036754
20
97.323229300639
30
0.0
0
VERTEX
5
7c8
100
AcDbEntity
8
9-0
6
CONTINUOUS
62
  2
100
AcDbVertex
100
AcDb2dVertex
10
121.079207036754
20
105.656562632389
30
0.0
0
VERTEX
5
7c9
100
AcDbEntity
8
9-0
6
CONTINUOUS
62
  2
100
AcDbVertex
100
AcDb2dVertex
10
119.745873703674
20
105.656562632389
30
0.0
0
SEQEND
5
7ca
100
AcDbEntity
8
9-0
0
LINE
5
7cb
100
AcDbEntity
8
9-0
6
CENTER2
62
2
100
AcDbLine
10
122.124988929559
20
101.489895966514
30
0.0
11
118.581058889080
21
101.489895966514
31
0.0
0
LINE
5
7cc
100
AcDbEntity
8
9-0
6
CENTER2
62
2
100
AcDbLine
10
120.412540370214
20
96.073435062193
30
0.0
11
120.412540370214
21
107.218291027154
31
0.0
0
LINE
5
7cd
100
AcDbEntity
8
9-E
6
CONTINUOUS
62
2
100
AcDbLine
10
121.079207036754
20
102.739895966276
30
0.0
11
119.745873703674
21
102.739895966276
31
0.0
0
LINE
5
7ce
100
AcDbEntity
8
9-E
6
CONTINUOUS
62
2
100
AcDbLine
10
121.079207036754
20
100.239895966751
30
0.0
11
119.745873703674
21
100.239895966751
31
0.0
0
LINE
5
7cf
100
AcDbEntity
8
9-E
6
CONTINUOUS
62
2
100
AcDbLine
10
179.062643239729
20
153.989895956539
30
0.0
11
179.062643239729
21
145.239895958201
31
0.0
0
LINE
5
7d0
100
AcDbEntity
8
9-1
6
CONTINUOUS
62
3
100
AcDbLine
10
179.062643239729
20
153.989895956539
30
0.0
11
183.229309905604
21
153.989895956539
31
0.0
0
LINE
5
7d1
100
AcDbEntity
8
9-0
6
CONTINUOUS
62
7
100
AcDbLine
10
178.395976573189
20
217.156562611204
30
0.0
11
178.395976573189
21
92.739793087518
31
0.0
0
LINE
5
7d2
100
AcDbEntity
8
9-1
6
CENTER2
62
3
100
AcDbLine
10
179.217375749987
20
151.073229290426
30
0.0
11
183.068918959132
21
151.073229290426
31
0.0
0
LINE
5
7d3
100
AcDbEntity
8
9-3
6
CONTINUOUS
62
6
100
AcDbLine
10
183.491861345883
20
248.101418572402
30
0.0
11
178.800194680108
21
248.101418572402
31
0.0
0
LINE
5
7d4
100
AcDbEntity
8
9-E
6
PHANTOM2
62
6
100
AcDbLine
10
176.977252293623
20
238.374978245032
30
0.0
11
185.422725543047
21
238.374978245032
31
0.0
0
LINE
5
7d5
100
AcDbEntity
8
9-E
6
PHANTOM2
62
6
100
AcDbLine
10
176.977252293623
20
239.222303347752
30
0.0
11
185.422725543047
21
239.222303347752
31
0.0
0
LINE
5
7d6
100
AcDbEntity
8
9-3
6
CONTINUOUS
62
6
100
AcDbLine
10
177.966861346933
20
238.374978245032
30
0.0
11
177.966861346933
21
230.156562608734
31
0.0
0
LINE
5
7d7
100
AcDbEntity
8
9-3
6
CONTINUOUS
62
6
100
AcDbLine
10
184.325194679058
20
238.374978245032
30
0.0
11
184.325194679058
21
230.156562608734
31
0.0
0
LINE
5
7d8
100
AcDbEntity
8
9-3
6
CONTINUOUS
62
6
100
AcDbLine
10
184.325194679058
20
247.268085239227
30
0.0
11
184.325194679058
21
239.222303347752
31
0.0
0
LINE
5
7d9
100
AcDbEntity
8
9-3
6
CONTINUOUS
62
6
100
AcDbLine
10
177.966861346933
20
247.268085239227
30
0.0
11
177.966861346933
21
239.222303347752
31
0.0
0
LINE
5
7da
100
AcDbEntity
8
9-E
6
CONTINUOUS
62
6
100
AcDbLine
10
177.966861346933
20
247.268085239227
30
0.0
11
184.325194679058
21
247.268085239227
31
0.0
0
LINE
5
7db
100
AcDbEntity
8
9-A
6
CENTER2
62
6
100
AcDbLine
10
161.559248181326
20
230.582179892603
30
0.0
11
161.559248181326
21
227.116439152521
31
0.0
0
LINE
5
7dc
100
AcDbEntity
8
9-A
6
CONTINUOUS
62
6
100
AcDbLine
10
161.559248181326
20
227.656562609209
30
0.0
11
181.145976572666
21
227.656562609209
31
0.0
0
LINE
5
7dd
100
AcDbEntity
8
9-A
6
CENTER2
62
6
100
AcDbLine
10
159.754309910064
20
228.906562608971
30
0.0
11
181.145976572666
21
228.906562608971
31
0.0
0
LINE
5
7de
100
AcDbEntity
8
9-A
6
CONTINUOUS
62
6
100
AcDbLine
10
161.559248181326
20
230.156562608734
30
0.0
11
181.145976572666
21
230.156562608734
31
0.0
0
LINE
5
7df
100
AcDbEntity
8
9-A
6
CENTER2
62
6
100
AcDbLine
10
200.729412782937
20
230.582179892603
30
0.0
11
200.729412782937
21
227.116439152521
31
0.0
0
LINE
5
7e0
100
AcDbEntity
8
9-A
6
CONTINUOUS
62
6
100
AcDbLine
10
200.729412782937
20
230.156562608734
30
0.0
11
181.145976572666
21
230.156562608734
31
0.0
0
LINE
5
7e1
100
AcDbEntity
8
9-A
6
CENTER2
62
6
100
AcDbLine
10
203.170976568481
20
228.906562608971
30
0.0
11
181.145976572666
21
228.906562608971
31
0.0
0
LINE
5
7e2
100
AcDbEntity
8
9-A
6
CONTINUOUS
62
6
100
AcDbLine
10
185.729309905129
20
220.156562610634
30
0.0
11
185.729309905129
21
223.823229276604
31
0.0
0
LINE
5
7e3
100
AcDbEntity
8
9-A
6
CONTINUOUS
62
6
100
AcDbLine
10
181.145976572666
20
219.739895944046
30
0.0
11
186.796079452251
21
219.739895944046
31
0.0
0
LINE
5
7e4
100
AcDbEntity
8
9-A
6
CONTINUOUS
62
6
100
AcDbLine
10
200.729412782937
20
227.656562609209
30
0.0
11
181.145976572666
21
227.656562609209
31
0.0
0
LINE
5
7e5
100
AcDbEntity
8
9-A
6
CONTINUOUS
62
6
100
AcDbLine
10
176.562643240204
20
220.156562610634
30
0.0
11
176.562643240204
21
223.823229276604
31
0.0
0
LINE
5
7e6
100
AcDbEntity
8
9-A
6
CONTINUOUS
62
6
100
AcDbLine
10
181.145976572666
20
219.739895944046
30
0.0
11
175.495976573740
21
219.739895944046
31
0.0
0
LINE
5
7e7
100
AcDbEntity
8
9-A
6
CONTINUOUS
62
6
100
AcDbLine
10
177.251943651595
20
225.257488535590
30
0.0
11
161.363569169017
21
227.671994707971
31
0.0
0
LINE
5
7e8
100
AcDbEntity
8
9-A
6
CONTINUOUS
62
6
100
AcDbLine
10
177.023137067277
20
226.137118165053
30
0.0
11
166.817684394319
21
227.656562609209
31
0.0
0
LINE
5
7e9
100
AcDbEntity
8
9-A
6
CONTINUOUS
62
6
100
AcDbLine
10
185.312746119200
20
224.239895943191
30
0.0
11
176.979309906791
21
224.239895943191
31
0.0
0
LINE
5
7ea
100
AcDbEntity
8
9-A
6
CONTINUOUS
62
6
100
AcDbLine
10
178.646079453800
20
224.406562609826
30
0.0
11
178.646079453800
21
224.239895943191
31
0.0
0
LINE
5
7eb
100
AcDbEntity
8
9-A
6
CONTINUOUS
62
6
100
AcDbLine
10
183.646079452850
20
224.406562609826
30
0.0
11
183.646079452850
21
224.239895943191
31
0.0
0
LINE
5
7ec
100
AcDbEntity
8
9-A
6
CONTINUOUS
62
6
100
AcDbLine
10
175.079309907152
20
219.323229277459
30
0.0
11
175.079309907152
21
217.739895944426
31
0.0
0
LINE
5
7ed
100
AcDbEntity
8
9-A
6
CONTINUOUS
62
6
100
AcDbLine
10
187.212746118839
20
219.323229277459
30
0.0
11
187.212746118839
21
217.739895944426
31
0.0
0
LINE
5
7ee
100
AcDbEntity
8
9-A
6
CONTINUOUS
62
6
100
AcDbLine
10
184.540215255149
20
224.406562609826
30
0.0
11
177.751737890184
21
224.406562609826
31
0.0
0
LINE
5
7ef
100
AcDbEntity
8
9-E
6
CONTINUOUS
62
2
100
AcDbLine
10
175.079309907152
20
218.739895944236
30
0.0
11
181.145976572666
21
218.739895944236
31
0.0
0
LINE
5
7f0
100
AcDbEntity
8
9-E
6
CONTINUOUS
62
2
100
AcDbLine
10
187.212746118839
20
218.739895944236
30
0.0
11
181.145976572666
21
218.739895944236
31
0.0
0
LINE
5
7f1
100
AcDbEntity
8
9-E
6
CENTER2
62
2
100
AcDbLine
10
176.579309906867
20
216.768085245022
30
0.0
11
176.579309906867
21
219.894216931671
31
0.0
0
LINE
5
7f2
100
AcDbEntity
8
9-E
6
CENTER2
62
2
100
AcDbLine
10
185.712643238465
20
216.989895944569
30
0.0
11
185.712643238465
21
219.894216931671
31
0.0
0
LINE
5
7f3
100
AcDbEntity
8
9-3
6
CONTINUOUS
62
6
100
AcDbLine
10
90.983219388151
20
248.101418572402
30
0.0
11
95.674886053926
21
248.101418572402
31
0.0
0
LINE
5
7f4
100
AcDbEntity
8
9-E
6
PHANTOM2
62
6
100
AcDbLine
10
97.497828440411
20
238.374978245032
30
0.0
11
89.052355190987
21
238.374978245032
31
0.0
0
LINE
5
7f5
100
AcDbEntity
8
9-E
6
PHANTOM2
62
6
100
AcDbLine
10
97.497828440411
20
239.222303347752
30
0.0
11
89.052355190987
21
239.222303347752
31
0.0
0
LINE
5
7f6
100
AcDbEntity
8
9-3
6
CONTINUOUS
62
6
100
AcDbLine
10
96.508219387101
20
238.374978245032
30
0.0
11
96.508219387101
21
230.156562608734
31
0.0
0
LINE
5
7f7
100
AcDbEntity
8
9-3
6
CONTINUOUS
62
6
100
AcDbLine
10
90.149886054976
20
238.374978245032
30
0.0
11
90.149886054976
21
230.156562608734
31
0.0
0
LINE
5
7f8
100
AcDbEntity
8
9-3
6
CONTINUOUS
62
6
100
AcDbLine
10
90.149886054976
20
247.268085239227
30
0.0
11
90.149886054976
21
239.222303347752
31
0.0
0
LINE
5
7f9
100
AcDbEntity
8
9-3
6
CONTINUOUS
62
6
100
AcDbLine
10
96.508219387101
20
247.268085239227
30
0.0
11
96.508219387101
21
239.222303347752
31
0.0
0
LINE
5
7fa
100
AcDbEntity
8
9-E
6
CONTINUOUS
62
6
100
AcDbLine
10
96.508219387101
20
247.268085239227
30
0.0
11
90.149886054976
21
247.268085239227
31
0.0
0
LINE
5
7fb
100
AcDbEntity
8
9-A
6
CENTER2
62
6
100
AcDbLine
10
112.915832552708
20
230.582179892603
30
0.0
11
112.915832552708
21
227.116439152521
31
0.0
0
LINE
5
7fc
100
AcDbEntity
8
9-A
6
CONTINUOUS
62
6
100
AcDbLine
10
112.915832552708
20
227.656562609209
30
0.0
11
93.329104161368
21
227.656562609209
31
0.0
0
LINE
5
7fd
100
AcDbEntity
8
9-A
6
CENTER2
62
6
100
AcDbLine
10
114.720770823970
20
228.906562608971
30
0.0
11
93.329104161368
21
228.906562608971
31
0.0
0
LINE
5
7fe
100
AcDbEntity
8
9-A
6
CONTINUOUS
62
6
100
AcDbLine
10
112.915832552708
20
230.156562608734
30
0.0
11
93.329104161368
21
230.156562608734
31
0.0
0
LINE
5
7ff
100
AcDbEntity
8
9-A
6
CENTER2
62
6
100
AcDbLine
10
73.745667951097
20
230.582179892603
30
0.0
11
73.745667951097
21
227.116439152521
31
0.0
0
LINE
5
800
100
AcDbEntity
8
9-A
6
CONTINUOUS
62
6
100
AcDbLine
10
73.745667951097
20
230.156562608734
30
0.0
11
93.329104161368
21
230.156562608734
31
0.0
0
LINE
5
801
100
AcDbEntity
8
9-A
6
CENTER2
62
6
100
AcDbLine
10
71.304104165553
20
228.906562608971
30
0.0
11
93.329104161368
21
228.906562608971
31
0.0
0
LINE
5
802
100
AcDbEntity
8
9-A
6
CONTINUOUS
62
6
100
AcDbLine
10
88.745770828905
20
220.156562610634
30
0.0
11
88.745770828905
21
223.823229276604
31
0.0
0
LINE
5
803
100
AcDbEntity
8
9-A
6
CONTINUOUS
62
6
100
AcDbLine
10
93.329104161368
20
219.739895944046
30
0.0
11
87.679001281783
21
219.739895944046
31
0.0
0
LINE
5
804
100
AcDbEntity
8
9-A
6
CONTINUOUS
62
6
100
AcDbLine
10
73.745667951097
20
227.656562609209
30
0.0
11
93.329104161368
21
227.656562609209
31
0.0
0
LINE
5
805
100
AcDbEntity
8
9-A
6
CONTINUOUS
62
6
100
AcDbLine
10
97.912437493830
20
220.156562610634
30
0.0
11
97.912437493830
21
223.823229276604
31
0.0
0
LINE
5
806
100
AcDbEntity
8
9-A
6
CONTINUOUS
62
6
100
AcDbLine
10
93.329104161368
20
219.739895944046
30
0.0
11
98.979104160294
21
219.739895944046
31
0.0
0
LINE
5
807
100
AcDbEntity
8
9-A
6
CONTINUOUS
62
6
100
AcDbLine
10
97.223137082439
20
225.257488535590
30
0.0
11
113.111511565017
21
227.671994707971
31
0.0
0
LINE
5
808
100
AcDbEntity
8
9-A
6
CONTINUOUS
62
6
100
AcDbLine
10
97.451943666757
20
226.137118165053
30
0.0
11
107.657396339715
21
227.656562609209
31
0.0
0
LINE
5
809
100
AcDbEntity
8
9-A
6
CONTINUOUS
62
6
100
AcDbLine
10
91.046079470444
20
225.003784831935
30
0.0
11
74.104927210288
21
227.671994707971
31
0.0
0
LINE
5
80a
100
AcDbEntity
8
9-A
6
CONTINUOUS
62
6
100
AcDbLine
10
91.175709100049
20
225.827035860585
30
0.0
11
79.559042435589
21
227.656562609209
31
0.0
0
LINE
5
80b
100
AcDbEntity
8
9-A
6
CONTINUOUS
62
6
100
AcDbLine
10
89.162334614834
20
224.239895943191
30
0.0
11
97.495770827243
21
224.239895943191
31
0.0
0
LINE
5
80c
100
AcDbEntity
8
9-A
6
CONTINUOUS
62
6
100
AcDbLine
10
95.829001280234
20
224.406562609826
30
0.0
11
95.829001280234
21
224.239895943191
31
0.0
0
LINE
5
80d
100
AcDbEntity
8
9-A
6
CONTINUOUS
62
6
100
AcDbLine
10
90.829001281184
20
224.406562609826
30
0.0
11
90.829001281184
21
224.239895943191
31
0.0
0
LINE
5
80e
100
AcDbEntity
8
9-A
6
CONTINUOUS
62
6
100
AcDbLine
10
99.395770826882
20
219.323229277459
30
0.0
11
99.395770826882
21
217.739895944426
31
0.0
0
LINE
5
80f
100
AcDbEntity
8
9-A
6
CONTINUOUS
62
6
100
AcDbLine
10
87.262334615195
20
219.323229277459
30
0.0
11
87.262334615195
21
217.739895944426
31
0.0
0
LINE
5
810
100
AcDbEntity
8
9-A
6
CONTINUOUS
62
6
100
AcDbLine
10
89.934865478885
20
224.406562609826
30
0.0
11
96.723342843851
21
224.406562609826
31
0.0
0
LINE
5
811
100
AcDbEntity
8
9-E
6
CONTINUOUS
62
2
100
AcDbLine
10
99.395770826882
20
218.739895944236
30
0.0
11
93.329104161368
21
218.739895944236
31
0.0
0
LINE
5
812
100
AcDbEntity
8
9-E
6
CONTINUOUS
62
2
100
AcDbLine
10
87.262334615195
20
218.739895944236
30
0.0
11
93.329104161368
21
218.739895944236
31
0.0
0
LINE
5
813
100
AcDbEntity
8
9-E
6
CENTER2
62
2
100
AcDbLine
10
97.895770827167
20
216.768085245022
30
0.0
11
97.895770827167
21
219.894216931671
31
0.0
0
LINE
5
814
100
AcDbEntity
8
9-E
6
CENTER2
62
2
100
AcDbLine
10
88.762437495569
20
216.989895944569
30
0.0
11
88.762437495569
21
219.894216931671
31
0.0
0
LINE
5
815
100
AcDbEntity
8
9-A
6
CONTINUOUS
62
6
100
AcDbLine
10
185.255441592462
20
226.135060551884
30
0.0
11
194.916038298445
21
227.656562609209
31
0.0
0
LINE
5
816
100
AcDbEntity
8
9-A
6
CONTINUOUS
62
6
100
AcDbLine
10
185.005030069875
20
225.252035860694
30
0.0
11
200.272519778909
21
227.656562609209
31
0.0
0
LINE
5
817
100
AcDbEntity
8
9-1
6
CONTINUOUS
62
3
100
AcDbLine
10
182.062643239159
20
146.906562624551
30
0.0
11
183.229309905604
21
148.073229290996
31
0.0
0
LINE
5
818
100
AcDbEntity
8
9-E
6
CONTINUOUS
62
2
100
AcDbLine
10
183.229309905604
20
153.989895956539
30
0.0
11
183.229309905604
21
148.073229290996
31
0.0
0
LINE
5
819
100
AcDbEntity
8
9-E
6
CONTINUOUS
62
2
100
AcDbLine
10
179.062643239729
20
145.239895958201
30
0.0
11
181.062643239349
21
145.239895958201
31
0.0
0
LINE
5
81a
100
AcDbEntity
8
9-E
6
CONTINUOUS
62
4
100
AcDbLine
10
68.329207046776
20
69.823229305863
30
0.0
11
118.329207037276
21
69.823229305863
31
0.0
0
LINE
5
81b
100
AcDbEntity
8
9-E
6
CONTINUOUS
62
4
100
AcDbLine
10
68.329207046776
20
85.157797204185
30
0.0
11
68.329207046776
21
68.989895972689
31
0.0
0
LINE
5
81c
100
AcDbEntity
8
9-E
6
CONTINUOUS
62
4
100
AcDbLine
10
118.329207037276
20
85.157797204185
30
0.0
11
118.329207037276
21
68.989895972689
31
0.0
0
LINE
5
81d
100
AcDbEntity
8
9-E
6
CONTINUOUS
62
4
100
AcDbLine
10
68.329207046776
20
69.823229305863
30
0.0
11
69.939083589680
21
70.254607906605
31
0.0
0
LINE
5
81e
100
AcDbEntity
8
9-E
6
CONTINUOUS
62
4
100
AcDbLine
10
68.329207046776
20
69.823229305863
30
0.0
11
69.939083589680
21
69.391850705122
31
0.0
0
LINE
5
81f
100
AcDbEntity
8
9-E
6
CONTINUOUS
62
4
100
AcDbLine
10
118.329207037276
20
69.823229305863
30
0.0
11
116.719330494372
21
70.254607906605
31
0.0
0
LINE
5
820
100
AcDbEntity
8
9-E
6
CONTINUOUS
62
4
100
AcDbLine
10
118.329207037276
20
69.823229305863
30
0.0
11
116.719330494372
21
69.391850705122
31
0.0
0
LINE
5
821
100
AcDbEntity
8
9-E
6
CONTINUOUS
62
4
100
AcDbLine
10
63.745873714314
20
63.156562640464
30
0.0
11
122.912643250397
21
63.156562640464
31
0.0
0
LINE
5
822
100
AcDbEntity
8
9-E
6
CONTINUOUS
62
4
100
AcDbLine
10
63.745873714314
20
85.157797204185
30
0.0
11
63.745873714314
21
62.323229307289
31
0.0
0
LINE
5
823
100
AcDbEntity
8
9-E
6
CONTINUOUS
62
4
100
AcDbLine
10
122.912643250397
20
85.157797204185
30
0.0
11
122.912643250397
21
62.323229307289
31
0.0
0
LINE
5
824
100
AcDbEntity
8
9-E
6
CONTINUOUS
62
4
100
AcDbLine
10
63.745873714314
20
63.156562640464
30
0.0
11
65.355750257218
21
63.587941241205
31
0.0
0
LINE
5
825
100
AcDbEntity
8
9-E
6
CONTINUOUS
62
4
100
AcDbLine
10
63.745873714314
20
63.156562640464
30
0.0
11
65.355750257218
21
62.725184039722
31
0.0
0
LINE
5
826
100
AcDbEntity
8
9-E
6
CONTINUOUS
62
4
100
AcDbLine
10
122.912643250397
20
63.156562640464
30
0.0
11
121.302766707493
21
63.587941241205
31
0.0
0
LINE
5
827
100
AcDbEntity
8
9-E
6
CONTINUOUS
62
4
100
AcDbLine
10
122.912643250397
20
63.156562640464
30
0.0
11
121.302766707493
21
62.725184039722
31
0.0
0
LINE
5
828
100
AcDbEntity
8
9-E
6
CONTINUOUS
62
4
100
AcDbLine
10
62.495873714551
20
56.489895975064
30
0.0
11
124.162540369501
21
56.489895975064
31
0.0
0
LINE
5
829
100
AcDbEntity
8
9-E
6
CONTINUOUS
62
4
100
AcDbLine
10
62.495873714551
20
85.157797204185
30
0.0
11
62.495873714551
21
55.656562641888
31
0.0
0
LINE
5
82a
100
AcDbEntity
8
9-E
6
CONTINUOUS
62
4
100
AcDbLine
10
124.162540369501
20
85.157797204185
30
0.0
11
124.162540369501
21
55.656562641888
31
0.0
0
LINE
5
82b
100
AcDbEntity
8
9-E
6
CONTINUOUS
62
4
100
AcDbLine
10
62.495873714551
20
56.489895975064
30
0.0
11
64.105750257455
21
56.921274575805
31
0.0
0
LINE
5
82c
100
AcDbEntity
8
9-E
6
CONTINUOUS
62
4
100
AcDbLine
10
62.495873714551
20
56.489895975064
30
0.0
11
64.105750257455
21
56.058517374322
31
0.0
0
LINE
5
82d
100
AcDbEntity
8
9-E
6
CONTINUOUS
62
4
100
AcDbLine
10
124.162540369501
20
56.489895975064
30
0.0
11
122.552663826597
21
56.921274575805
31
0.0
0
LINE
5
82e
100
AcDbEntity
8
9-E
6
CONTINUOUS
62
4
100
AcDbLine
10
124.162540369501
20
56.489895975064
30
0.0
11
122.552663826597
21
56.058517374322
31
0.0
0
LINE
5
82f
100
AcDbEntity
8
9-E
6
CONTINUOUS
62
2
100
AcDbLine
10
62.495873714551
20
159.406459741518
30
0.0
11
51.662540383276
21
159.406459741518
31
0.0
0
LINE
5
830
100
AcDbEntity
8
9-E
6
CONTINUOUS
62
2
100
AcDbLine
10
134.995873700776
20
159.406459741518
30
0.0
11
124.162540369501
21
159.406459741518
31
0.0
0
LINE
5
831
100
AcDbEntity
8
9-1
6
CONTINUOUS
62
3
100
AcDbLine
10
68.329207046776
20
93.156562634764
30
0.0
11
93.329207042026
21
93.156562634764
31
0.0
0
LINE
5
832
100
AcDbEntity
8
9-0
6
CONTINUOUS
62
7
100
AcDbLine
10
62.495873714551
20
92.739895968176
30
0.0
11
124.162540369501
21
92.739895968176
31
0.0
0
LINE
5
833
100
AcDbEntity
8
9-E
6
CONTINUOUS
62
4
100
AcDbLine
10
43.329207051526
20
92.739895968176
30
0.0
11
43.329207051526
21
146.906562624551
31
0.0
0
LINE
5
834
100
AcDbEntity
8
9-E
6
CONTINUOUS
62
4
100
AcDbLine
10
43.329207051526
20
92.739895968176
30
0.0
11
42.897828450785
21
94.349772511080
31
0.0
0
LINE
5
835
100
AcDbEntity
8
9-E
6
CONTINUOUS
62
4
100
AcDbLine
10
43.329207051526
20
92.739895968176
30
0.0
11
43.760585652267
21
94.349772511080
31
0.0
0
LINE
5
836
100
AcDbEntity
8
9-E
6
CONTINUOUS
62
4
100
AcDbLine
10
43.329207051526
20
146.906562624551
30
0.0
11
42.897828450785
21
145.296686081647
31
0.0
0
LINE
5
837
100
AcDbEntity
8
9-E
6
CONTINUOUS
62
4
100
AcDbLine
10
43.329207051526
20
146.906562624551
30
0.0
11
43.760585652267
21
145.296686081647
31
0.0
0
LINE
5
838
100
AcDbEntity
8
9-E
6
CONTINUOUS
62
4
100
AcDbLine
10
36.662540386126
20
92.739895968176
30
0.0
11
36.662540386126
21
159.406459741518
31
0.0
0
LINE
5
839
100
AcDbEntity
8
9-E
6
CONTINUOUS
62
4
100
AcDbLine
10
49.729001288993
20
159.406459741518
30
0.0
11
35.829207052951
21
159.406459741518
31
0.0
0
LINE
5
83a
100
AcDbEntity
8
9-E
6
CONTINUOUS
62
4
100
AcDbLine
10
36.662540386126
20
92.739895968176
30
0.0
11
36.231161785385
21
94.349772511080
31
0.0
0
LINE
5
83b
100
AcDbEntity
8
9-E
6
CONTINUOUS
62
4
100
AcDbLine
10
36.662540386126
20
92.739895968176
30
0.0
11
37.093918986867
21
94.349772511080
31
0.0
0
LINE
5
83c
100
AcDbEntity
8
9-E
6
CONTINUOUS
62
4
100
AcDbLine
10
36.662540386126
20
159.406459741518
30
0.0
11
36.231161785385
21
157.796583198614
31
0.0
0
LINE
5
83d
100
AcDbEntity
8
9-E
6
CONTINUOUS
62
4
100
AcDbLine
10
36.662540386126
20
159.406459741518
30
0.0
11
37.093918986867
21
157.796583198614
31
0.0
0
LINE
5
83e
100
AcDbEntity
8
9-E
6
CONTINUOUS
62
4
100
AcDbLine
10
59.230853139040
20
92.739895968176
30
0.0
11
29.162540387551
21
92.739895968176
31
0.0
0
LINE
5
83f
100
AcDbEntity
8
9-E
6
CONTINUOUS
62
4
100
AcDbLine
10
29.995873720726
20
92.739895968176
30
0.0
11
29.564495119985
21
94.349772511080
31
0.0
0
LINE
5
840
100
AcDbEntity
8
9-E
6
CONTINUOUS
62
4
100
AcDbLine
10
29.995873720726
20
92.739895968176
30
0.0
11
30.427252321467
21
94.349772511080
31
0.0
0
LINE
5
841
100
AcDbEntity
8
9-E
6
CONTINUOUS
62
4
100
AcDbLine
10
29.995873720726
20
217.739895944426
30
0.0
11
29.564495119985
21
216.130019401522
31
0.0
0
LINE
5
842
100
AcDbEntity
8
9-E
6
CONTINUOUS
62
4
100
AcDbLine
10
29.995873720726
20
217.739895944426
30
0.0
11
30.427252321467
21
216.130019401522
31
0.0
0
LINE
5
843
100
AcDbEntity
8
9-E
6
CONTINUOUS
62
4
100
AcDbLine
10
29.995873720726
20
217.739895944426
30
0.0
11
29.995873720726
21
92.739895968176
31
0.0
0
LINE
5
844
100
AcDbEntity
8
9-E
6
CONTINUOUS
62
4
100
AcDbLine
10
59.572931328275
20
217.739895944426
30
0.0
11
29.162540387551
21
217.739895944426
31
0.0
0
LINE
5
845
100
AcDbEntity
8
9-E
6
CONTINUOUS
62
4
100
AcDbLine
10
61.214392233313
20
146.906562624551
30
0.0
11
42.495873718351
21
146.906562624551
31
0.0
0
LINE
5
846
100
AcDbEntity
8
9-0
6
CENTER2
62
7
100
AcDbLine
10
181.145976572666
20
250.728990588364
30
0.0
11
181.145976572666
21
148.710780731204
31
0.0
0
LINE
5
847
100
AcDbEntity
8
9-E
6
CONTINUOUS
62
4
100
AcDbLine
10
113.053383993011
20
261.533311573965
30
0.0
11
113.053383993011
21
248.200081123824
31
0.0
0
LINE
5
848
100
AcDbEntity
8
9-B
6
CONTINUOUS
62
7
100
AcDbLine
10
171.234351060146
20
118.851007074326
30
0.0
11
171.234351060146
21
119.962015304568
31
0.0
0
LINE
5
849
100
AcDbEntity
8
9-B
6
CONTINUOUS
62
7
100
AcDbLine
10
171.234351060146
20
116.628681971868
30
0.0
11
171.234351060146
21
115.517570860968
31
0.0
0
LINE
5
84a
100
AcDbEntity
8
9-B
6
CONTINUOUS
62
7
100
AcDbLine
10
171.234351060146
20
119.962015304568
30
0.0
11
175.083425133489
21
117.739793082768
31
0.0
0
LINE
5
84b
100
AcDbEntity
8
9-B
6
CONTINUOUS
62
7
100
AcDbLine
10
171.234351060146
20
115.517570860968
30
0.0
11
175.083425133489
21
117.739793082768
31
0.0
0
LINE
5
84c
100
AcDbEntity
8
9-E
6
CONTINUOUS
62
6
100
AcDbLine
10
174.772931306387
20
150.744834228760
30
0.0
11
160.143918963488
21
150.744834228760
31
0.0
0
LINE
5
84d
100
AcDbEntity
8
9-E
6
CONTINUOUS
62
4
100
AcDbLine
10
151.662540364276
20
92.739793087518
30
0.0
11
151.662540364276
21
150.744834228760
31
0.0
0
LINE
5
84e
100
AcDbEntity
8
9-E
6
CONTINUOUS
62
4
100
AcDbLine
10
151.662540364276
20
92.739793087518
30
0.0
11
151.231161763535
21
94.349669630422
31
0.0
0
LINE
5
84f
100
AcDbEntity
8
9-E
6
CONTINUOUS
62
4
100
AcDbLine
10
151.662540364276
20
92.739793087518
30
0.0
11
152.093918965017
21
94.349669630422
31
0.0
0
LINE
5
850
100
AcDbEntity
8
9-E
6
CONTINUOUS
62
4
100
AcDbLine
10
151.662540364276
20
150.744834228760
30
0.0
11
151.231161763535
21
149.134957685856
31
0.0
0
LINE
5
851
100
AcDbEntity
8
9-E
6
CONTINUOUS
62
4
100
AcDbLine
10
151.662540364276
20
150.744834228760
30
0.0
11
152.093918965017
21
149.134957685856
31
0.0
0
LINE
5
852
100
AcDbEntity
8
9-E
6
CONTINUOUS
62
4
100
AcDbLine
10
158.865935424636
20
150.744834228760
30
0.0
11
150.829207031101
21
150.744834228760
31
0.0
0
LINE
5
853
100
AcDbEntity
8
9-E
6
CONTINUOUS
62
4
100
AcDbLine
10
175.801429248579
20
92.739793087518
30
0.0
11
150.829207031101
21
92.739793087518
31
0.0
0
LINE
5
854
100
AcDbEntity
8
9-E
6
CONTINUOUS
62
4
100
AcDbLine
10
113.053383993011
20
248.200081123824
30
0.0
11
95.358528029295
21
222.933825984591
31
0.0
0
POLYLINE
5
855
100
AcDbEntity
8
9-E
6
CONTINUOUS
62
  4
100
AcDb2dPolyline
66
1
10
0.0
20
0.0
30
0.0
70
0
0
VERTEX
5
856
100
AcDbEntity
8
9-E
6
CONTINUOUS
62
  4
100
AcDbVertex
100
AcDb2dVertex
10
64.919330504214
20
239.777961783860
30
0.0
0
VERTEX
5
857
100
AcDbEntity
8
9-E
6
CONTINUOUS
62
  4
100
AcDbVertex
100
AcDb2dVertex
10
73.288363424435
20
217.739895944426
30
0.0
0
VERTEX
5
858
100
AcDbEntity
8
9-E
6
CONTINUOUS
62
  4
100
AcDbVertex
100
AcDb2dVertex
10
72.313569185937
20
219.091747796021
30
0.0
0
SEQEND
5
859
100
AcDbEntity
8
9-E
0
LINE
5
85a
100
AcDbEntity
8
9-E
6
CONTINUOUS
62
4
100
AcDbLine
10
73.288363424435
20
217.739895944426
30
0.0
11
73.120050667265
21
219.398023516127
31
0.0
0
LINE
5
85b
100
AcDbEntity
8
9-E
6
CONTINUOUS
62
6
100
AcDbLine
10
172.973342829363
20
149.911500895585
30
0.0
11
161.825091802675
21
149.911500895585
31
0.0
0
LINE
5
85c
100
AcDbEntity
8
9-E
6
CONTINUOUS
62
6
100
AcDbLine
10
171.329721430498
20
149.078167562410
30
0.0
11
163.817067110938
21
149.078167562410
31
0.0
0
LINE
5
85d
100
AcDbEntity
8
9-E
6
CONTINUOUS
62
6
100
AcDbLine
10
170.165421019197
20
148.244834229235
30
0.0
11
164.858219374115
21
148.244834229235
31
0.0
0
LINE
5
85e
100
AcDbEntity
8
9-E
6
CONTINUOUS
62
4
100
AcDbLine
10
169.001120607896
20
147.411500896060
30
0.0
11
166.604104147446
21
147.411500896060
31
0.0
0
LINE
5
85f
100
AcDbEntity
8
9-E
6
CONTINUOUS
62
4
100
AcDbLine
10
143.329207032526
20
151.073229290426
30
0.0
11
143.329207032526
21
159.406459741518
31
0.0
0
LINE
5
860
100
AcDbEntity
8
9-E
6
CONTINUOUS
62
4
100
AcDbLine
10
135.632293453742
20
159.406459741518
30
0.0
11
144.162540365701
21
159.406459741518
31
0.0
0
LINE
5
861
100
AcDbEntity
8
9-E
6
CONTINUOUS
62
4
100
AcDbLine
10
143.329207032526
20
151.073229290426
30
0.0
11
142.897828431785
21
152.683002952672
31
0.0
0
LINE
5
862
100
AcDbEntity
8
9-E
6
CONTINUOUS
62
4
100
AcDbLine
10
143.329207032526
20
151.073229290426
30
0.0
11
143.760585633267
21
152.683002952672
31
0.0
0
LINE
5
863
100
AcDbEntity
8
9-E
6
CONTINUOUS
62
4
100
AcDbLine
10
143.329207032526
20
159.406459741518
30
0.0
11
142.897828431785
21
157.796583198614
31
0.0
0
LINE
5
864
100
AcDbEntity
8
9-E
6
CONTINUOUS
62
4
100
AcDbLine
10
143.329207032526
20
159.406459741518
30
0.0
11
143.760585633267
21
157.796583198614
31
0.0
0
LINE
5
865
100
AcDbEntity
8
9-E
6
CONTINUOUS
62
4
100
AcDbLine
10
143.329207032526
20
92.739895968176
30
0.0
11
143.329207032526
21
101.073229299926
31
0.0
0
LINE
5
866
100
AcDbEntity
8
9-E
6
CONTINUOUS
62
4
100
AcDbLine
10
125.921593867109
20
92.739895968176
30
0.0
11
144.162540365701
21
92.739895968176
31
0.0
0
LINE
5
867
100
AcDbEntity
8
9-E
6
CONTINUOUS
62
4
100
AcDbLine
10
143.329207032526
20
92.739895968176
30
0.0
11
142.897828431785
21
94.349772511080
31
0.0
0
LINE
5
868
100
AcDbEntity
8
9-E
6
CONTINUOUS
62
4
100
AcDbLine
10
143.329207032526
20
92.739895968176
30
0.0
11
143.760585633267
21
94.349772511080
31
0.0
0
LINE
5
869
100
AcDbEntity
8
9-E
6
CONTINUOUS
62
4
100
AcDbLine
10
143.329207032526
20
101.073229299926
30
0.0
11
142.897828431785
21
99.463352757022
31
0.0
0
LINE
5
86a
100
AcDbEntity
8
9-E
6
CONTINUOUS
62
4
100
AcDbLine
10
143.329207032526
20
101.073229299926
30
0.0
11
143.760585633267
21
99.463352757022
31
0.0
0
LINE
5
86b
100
AcDbEntity
8
9-E
6
CONTINUOUS
62
4
100
AcDbLine
10
180.312643239491
20
225.503784831840
30
0.0
11
180.312643239491
21
227.656562609209
31
0.0
0
LINE
5
86c
100
AcDbEntity
8
9-E
6
CONTINUOUS
62
4
100
AcDbLine
10
181.979309905841
20
225.503784831840
30
0.0
11
181.979309905841
21
227.656562609209
31
0.0
0
LINE
5
86d
100
AcDbEntity
8
9-E
6
CONTINUOUS
62
3
100
AcDbLine
10
180.929412786699
20
95.573229300971
30
0.0
11
181.062643239349
21
95.573229300971
31
0.0
0
LINE
5
86e
100
AcDbEntity
8
9-E
6
CONTINUOUS
62
3
100
AcDbLine
10
180.929412786699
20
94.073126420598
30
0.0
11
181.062643239349
21
94.073126420598
31
0.0
0
LINE
5
86f
100
AcDbEntity
8
9-E
6
CONTINUOUS
62
3
100
AcDbLine
10
180.062643239539
20
95.156562634384
30
0.0
11
180.062643239539
21
94.489793087185
31
0.0
0
LINE
5
870
100
AcDbEntity
8
9-E
6
CONTINUOUS
62
3
100
AcDbLine
10
180.929412786699
20
94.073126420598
30
0.0
11
180.929412786699
21
95.573229300971
31
0.0
0
LINE
5
871
100
AcDbEntity
8
9-0
6
CONTINUOUS
62
7
100
AcDbLine
10
180.929412786699
20
94.197714897940
30
0.0
11
180.484453939047
21
94.197714897940
31
0.0
0
LINE
5
872
100
AcDbEntity
8
9-0
6
CONTINUOUS
62
7
100
AcDbLine
10
180.436100029591
20
94.281459753891
30
0.0
11
180.484453939047
21
94.197714897940
31
0.0
0
LINE
5
873
100
AcDbEntity
8
9-0
6
CONTINUOUS
62
7
100
AcDbLine
10
180.929412786699
20
95.448640823628
30
0.0
11
180.484453939047
21
95.448640823628
31
0.0
0
LINE
5
874
100
AcDbEntity
8
9-0
6
CONTINUOUS
62
7
100
AcDbLine
10
180.436100029591
20
95.364793087019
30
0.0
11
180.484453939047
21
95.448640823628
31
0.0
0
LINE
5
875
100
AcDbEntity
8
9-0
6
CONTINUOUS
62
7
100
AcDbLine
10
180.436100029591
20
94.281459753891
30
0.0
11
180.436100029591
21
95.364793087019
31
0.0
0
LINE
5
876
100
AcDbEntity
8
9-E
6
CONTINUOUS
62
3
100
AcDbLine
10
180.436100029591
20
95.156562634384
30
0.0
11
180.062643239539
21
95.156562634384
31
0.0
0
LINE
5
877
100
AcDbEntity
8
9-E
6
CONTINUOUS
62
3
100
AcDbLine
10
180.436100029591
20
94.489793087185
30
0.0
11
180.062643239539
21
94.489793087185
31
0.0
0
LINE
5
878
100
AcDbEntity
8
9-0
6
CONTINUOUS
62
7
100
AcDbLine
10
180.929412786699
20
94.510472099527
30
0.0
11
180.484453939047
21
94.510472099527
31
0.0
0
LINE
5
879
100
AcDbEntity
8
9-0
6
CONTINUOUS
62
7
100
AcDbLine
10
180.929412786699
20
95.135883622042
30
0.0
11
180.484453939047
21
95.135883622042
31
0.0
0
LINE
5
87a
100
AcDbEntity
8
9-E
6
CONTINUOUS
62
4
100
AcDbLine
10
180.436100029591
20
95.073229301066
30
0.0
11
180.062643239539
21
95.073229301066
31
0.0
0
LINE
5
87b
100
AcDbEntity
8
9-E
6
CONTINUOUS
62
4
100
AcDbLine
10
180.436100029591
20
94.573126420503
30
0.0
11
180.062643239539
21
94.573126420503
31
0.0
0
LINE
5
87c
100
AcDbEntity
8
9-0
6
CONTINUOUS
62
7
100
AcDbLine
10
176.312643240251
20
92.156562634954
30
0.0
11
176.312643240251
21
92.739793087518
31
0.0
0
LINE
5
87d
100
AcDbEntity
8
9-0
6
CONTINUOUS
62
7
100
AcDbLine
10
176.312643240251
20
92.156562634954
30
0.0
11
183.229412786262
21
92.156562634954
31
0.0
0
LINE
5
87e
100
AcDbEntity
8
9-E
6
CONTINUOUS
62
4
100
AcDbLine
10
113.053383993011
20
261.533311573965
30
0.0
11
147.485894274535
21
261.533311573965
31
0.0
0
LINE
5
87f
100
AcDbEntity
8
9-E
6
CONTINUOUS
62
4
100
AcDbLine
10
113.053383993011
20
254.866644908565
30
0.0
11
147.485894274535
21
254.866644908565
31
0.0
0
LINE
5
880
100
AcDbEntity
8
9-E
6
CONTINUOUS
62
4
100
AcDbLine
10
113.053383993011
20
248.200081123824
30
0.0
11
147.485894274535
21
248.200081123824
31
0.0
0
LINE
5
881
100
AcDbEntity
8
9-E
6
CONTINUOUS
62
4
100
AcDbLine
10
64.919330504214
20
239.777961783860
30
0.0
11
36.134453966474
21
239.777961783860
31
0.0
0
LINE
5
882
100
AcDbEntity
8
9-E
6
CONTINUOUS
62
4
100
AcDbLine
10
97.591861362204
20
122.694731353431
30
0.0
11
110.990626791757
21
122.694731353431
31
0.0
0
LINE
5
883
100
AcDbEntity
8
9-B
6
CONTINUOUS
62
7
100
AcDbLine
10
159.012128840246
20
118.851007074326
30
0.0
11
171.234351060146
21
118.851007074326
31
0.0
0
LINE
5
884
100
AcDbEntity
8
9-B
6
CONTINUOUS
62
7
100
AcDbLine
10
159.012128840246
20
116.628681971868
30
0.0
11
171.234351060146
21
116.628681971868
31
0.0
0
LINE
5
885
100
AcDbEntity
8
9-B
6
CONTINUOUS
62
7
100
AcDbLine
10
159.012128840246
20
118.851007074326
30
0.0
11
159.012128840246
21
116.628681971868
31
0.0
0
LINE
5
886
100
AcDbEntity
8
9-0
6
CONTINUOUS
62
7
100
AcDbLine
10
62.495873714551
20
217.156562611204
30
0.0
11
62.495873714551
21
86.489895969364
31
0.0
0
LINE
5
887
100
AcDbEntity
8
9-0
6
DOT
62
7
100
AcDbLine
10
63.245873714409
20
217.156562611204
30
0.0
11
63.245873714409
21
92.739895968176
31
0.0
0
LINE
5
888
100
AcDbEntity
8
9-E
6
CONTINUOUS
62
4
100
AcDbLine
10
121.079207036754
20
128.406562628066
30
0.0
11
119.745873703674
21
128.406562628066
31
0.0
0
LINE
5
889
100
AcDbEntity
8
9-E
6
CONTINUOUS
62
4
100
AcDbLine
10
121.079207036754
20
127.823229294844
30
0.0
11
119.745873703674
21
127.823229294844
31
0.0
0
LINE
5
88a
100
AcDbEntity
8
9-E
6
CONTINUOUS
62
4
100
AcDbLine
10
121.079207036754
20
127.239895961621
30
0.0
11
119.745873703674
21
127.239895961621
31
0.0
0
LINE
5
88b
100
AcDbEntity
8
9-E
6
CONTINUOUS
62
4
100
AcDbLine
10
121.079207036754
20
126.656562628399
30
0.0
11
119.745873703674
21
126.656562628399
31
0.0
0
LINE
5
88c
100
AcDbEntity
8
9-E
6
CONTINUOUS
62
4
100
AcDbLine
10
121.079207036754
20
133.823229293704
30
0.0
11
119.745873703674
21
133.823229293704
31
0.0
0
LINE
5
88d
100
AcDbEntity
8
9-E
6
CONTINUOUS
62
4
100
AcDbLine
10
121.079207036754
20
133.239895960481
30
0.0
11
119.745873703674
21
133.239895960481
31
0.0
0
LINE
5
88e
100
AcDbEntity
8
9-E
6
CONTINUOUS
62
4
100
AcDbLine
10
121.079207036754
20
132.656562627259
30
0.0
11
119.745873703674
21
132.656562627259
31
0.0
0
LINE
5
88f
100
AcDbEntity
8
9-E
6
CONTINUOUS
62
4
100
AcDbLine
10
121.079207036754
20
132.073229294036
30
0.0
11
119.745873703674
21
132.073229294036
31
0.0
0
LINE
5
890
100
AcDbEntity
8
9-E
6
CONTINUOUS
62
4
100
AcDbLine
10
121.079207036754
20
105.073229299166
30
0.0
11
119.745873703674
21
105.073229299166
31
0.0
0
LINE
5
891
100
AcDbEntity
8
9-E
6
CONTINUOUS
62
4
100
AcDbLine
10
121.079207036754
20
104.489895965944
30
0.0
11
119.745873703674
21
104.489895965944
31
0.0
0
LINE
5
892
100
AcDbEntity
8
9-E
6
CONTINUOUS
62
4
100
AcDbLine
10
121.079207036754
20
103.906562632721
30
0.0
11
119.745873703674
21
103.906562632721
31
0.0
0
LINE
5
893
100
AcDbEntity
8
9-E
6
CONTINUOUS
62
4
100
AcDbLine
10
121.079207036754
20
103.323229299499
30
0.0
11
119.745873703674
21
103.323229299499
31
0.0
0
LINE
5
894
100
AcDbEntity
8
9-E
6
CONTINUOUS
62
4
100
AcDbLine
10
121.079207036754
20
99.656562633529
30
0.0
11
119.745873703674
21
99.656562633529
31
0.0
0
LINE
5
895
100
AcDbEntity
8
9-E
6
CONTINUOUS
62
4
100
AcDbLine
10
121.079207036754
20
99.073229300306
30
0.0
11
119.745873703674
21
99.073229300306
31
0.0
0
LINE
5
896
100
AcDbEntity
8
9-E
6
CONTINUOUS
62
4
100
AcDbLine
10
121.079207036754
20
98.489895967084
30
0.0
11
119.745873703674
21
98.489895967084
31
0.0
0
LINE
5
897
100
AcDbEntity
8
9-E
6
CONTINUOUS
62
4
100
AcDbLine
10
121.079207036754
20
97.906562633861
30
0.0
11
119.745873703674
21
97.906562633861
31
0.0
0
LINE
5
898
100
AcDbEntity
8
9-A
6
CONTINUOUS
62
2
100
AcDbLine
10
173.645976574091
20
217.739895944426
30
0.0
11
173.645976574091
21
211.489895945614
31
0.0
0
POLYLINE
5
899
100
AcDbEntity
8
9-A
6
CONTINUOUS
62
  2
100
AcDb2dPolyline
66
1
10
0.0
20
0.0
30
0.0
70
0
0
VERTEX
5
89a
100
AcDbEntity
8
9-A
6
CONTINUOUS
62
  2
100
AcDbVertex
100
AcDb2dVertex
10
173.645976574091
20
217.739895944426
30
0.0
0
VERTEX
5
89b
100
AcDbEntity
8
9-A
6
CONTINUOUS
62
  2
100
AcDbVertex
100
AcDb2dVertex
10
188.645976571241
20
217.739895944426
30
0.0
0
VERTEX
5
89c
100
AcDbEntity
8
9-A
6
CONTINUOUS
62
  2
100
AcDbVertex
100
AcDb2dVertex
10
188.645976571241
20
211.489895945614
30
0.0
0
SEQEND
5
89d
100
AcDbEntity
8
9-A
0
LINE
5
89e
100
AcDbEntity
8
9-0
6
CONTINUOUS
62
7
100
AcDbLine
10
184.645873691343
20
217.156562611204
30
0.0
11
184.645873691343
21
80.239793089893
31
0.0
0
LINE
5
89f
100
AcDbEntity
8
9-E
6
CONTINUOUS
62
4
100
AcDbLine
10
201.312540354843
20
92.739793087518
30
0.0
11
201.312540354843
21
159.406459741518
31
0.0
0
LINE
5
8a0
100
AcDbEntity
8
9-E
6
CONTINUOUS
62
4
100
AcDbLine
10
194.132190561968
20
159.406459741518
30
0.0
11
202.145873688018
21
159.406459741518
31
0.0
0
LINE
5
8a1
100
AcDbEntity
8
9-E
6
CONTINUOUS
62
4
100
AcDbLine
10
201.312540354843
20
159.406459741518
30
0.0
11
200.881161754102
21
157.796583198614
31
0.0
0
LINE
5
8a2
100
AcDbEntity
8
9-E
6
CONTINUOUS
62
4
100
AcDbLine
10
201.312540354843
20
159.406459741518
30
0.0
11
201.743918955584
21
157.796583198614
31
0.0
0
LINE
5
8a3
100
AcDbEntity
8
9-E
6
CONTINUOUS
62
4
100
AcDbLine
10
72.495667951334
20
241.764072894594
30
0.0
11
114.720770823970
21
241.764072894594
31
0.0
0
LINE
5
8a4
100
AcDbEntity
8
9-E
6
CONTINUOUS
62
4
100
AcDbLine
10
72.495667951334
20
241.764072894594
30
0.0
11
74.105544494238
21
242.195451495335
31
0.0
0
LINE
5
8a5
100
AcDbEntity
8
9-E
6
CONTINUOUS
62
4
100
AcDbLine
10
72.495667951334
20
241.764072894594
30
0.0
11
74.105544494238
21
241.332694293853
31
0.0
0
LINE
5
8a6
100
AcDbEntity
8
9-E
6
CONTINUOUS
62
4
100
AcDbLine
10
114.720770823970
20
241.764072894594
30
0.0
11
113.110894281066
21
242.195451495335
31
0.0
0
LINE
5
8a7
100
AcDbEntity
8
9-E
6
CONTINUOUS
62
4
100
AcDbLine
10
114.720770823970
20
241.764072894594
30
0.0
11
113.110894281066
21
241.332694293853
31
0.0
0
LINE
5
8a8
100
AcDbEntity
8
9-E
6
CONTINUOUS
62
4
100
AcDbLine
10
72.495667951334
20
231.211603760796
30
0.0
11
72.495667951334
21
242.597406227769
31
0.0
0
LINE
5
8a9
100
AcDbEntity
8
9-E
6
CONTINUOUS
62
4
100
AcDbLine
10
114.720770823970
20
231.211603760796
30
0.0
11
114.720770823970
21
242.597406227769
31
0.0
0
ARC
5
8aa
100
AcDbEntity
8
9-0
6
CONTINUOUS
62
7
100
AcDbCircle
10
183.229412786262
20
91.323229301779
30
0.0
40
0.833333333175
100
AcDbArc
50
0.000000000000
51
90.000000000000
0
CIRCLE
5
8ab
100
AcDbEntity
8
9-1
6
CONTINUOUS
62
3
100
AcDbCircle
10
181.145976572666
20
151.073229290426
30
0.0
40
0.833333333175
0
CIRCLE
5
8ac
100
AcDbEntity
8
9-1
6
CONTINUOUS
62
3
100
AcDbCircle
10
181.145976572666
20
151.073229290426
30
0.0
40
1.666666666350
0
ARC
5
8ad
100
AcDbEntity
8
9-A
6
CONTINUOUS
62
2
100
AcDbCircle
10
175.490729660160
20
216.323229278029
30
0.0
40
0.833333333175
100
AcDbArc
50
90.000000000000
51
174.999000000000
0
ARC
5
8ae
100
AcDbEntity
8
9-A
6
CONTINUOUS
62
2
100
AcDbCircle
10
173.849680277756
20
211.906459731543
30
0.0
40
0.416666666588
100
AcDbArc
50
270.000000000000
51
355.001000000000
0
ARC
5
8af
100
AcDbEntity
8
9-A
6
CONTINUOUS
62
2
100
AcDbCircle
10
186.801223485172
20
216.323229278029
30
0.0
40
0.833333333175
100
AcDbArc
50
5.001000000000
51
90.000000000000
0
ARC
5
8b0
100
AcDbEntity
8
9-A
6
CONTINUOUS
62
2
100
AcDbCircle
10
188.442478628893
20
211.906459731543
30
0.0
40
0.416666666588
100
AcDbArc
50
184.999000000000
51
270.000000000000
0
ARC
5
8b1
100
AcDbEntity
8
9-A
6
DOT
62
2
100
AcDbCircle
10
67.329207046966
20
216.156665492052
30
0.0
40
0.499999999905
100
AcDbArc
50
0.000000000000
51
90.000000000000
0
ARC
5
8b2
100
AcDbEntity
8
9-A
6
DOT
62
2
100
AcDbCircle
10
67.329309927625
20
216.156562611394
30
0.0
40
0.999999999810
100
AcDbArc
50
0.000000000000
51
90.000000000000
0
ARC
5
8b3
100
AcDbEntity
8
9-A
6
DOT
62
2
100
AcDbCircle
10
119.329207037086
20
216.156665492052
30
0.0
40
0.499999999905
100
AcDbArc
50
90.000000000000
51
180.000000000000
0
ARC
5
8b4
100
AcDbEntity
8
9-A
6
DOT
62
2
100
AcDbCircle
10
119.329207037086
20
216.156562611394
30
0.0
40
0.999999999810
100
AcDbArc
50
90.000000000000
51
180.000000000000
0
ARC
5
8b5
100
AcDbEntity
8
9-3
6
CONTINUOUS
62
6
100
AcDbCircle
10
178.800194680108
20
247.268085239227
30
0.0
40
0.833333333175
100
AcDbArc
50
90.000000000000
51
180.000000000000
0
ARC
5
8b6
100
AcDbEntity
8
9-3
6
CONTINUOUS
62
6
100
AcDbCircle
10
183.491861345883
20
247.268085239227
30
0.0
40
0.833333333175
100
AcDbArc
50
0.000000000000
51
90.000000000000
0
ARC
5
8b7
100
AcDbEntity
8
9-A
6
CONTINUOUS
62
6
100
AcDbCircle
10
161.559248181326
20
228.906562608971
30
0.0
40
1.249999999763
100
AcDbArc
50
90.000000000000
51
270.000000000000
0
ARC
5
8b8
100
AcDbEntity
8
9-A
6
CONTINUOUS
62
6
100
AcDbCircle
10
200.729412782937
20
228.906562608971
30
0.0
40
1.249999999763
100
AcDbArc
50
270.000000000000
51
450.000000000000
0
ARC
5
8b9
100
AcDbEntity
8
9-A
6
CONTINUOUS
62
6
100
AcDbCircle
10
185.312746119200
20
223.823229276604
30
0.0
40
0.416666666588
100
AcDbArc
50
359.994000000000
51
450.000000000000
0
ARC
5
8ba
100
AcDbEntity
8
9-A
6
CONTINUOUS
62
6
100
AcDbCircle
10
186.796079452251
20
219.323229277459
30
0.0
40
0.416666666588
100
AcDbArc
50
0.000000000000
51
90.000000000000
0
ARC
5
8bb
100
AcDbEntity
8
9-A
6
CONTINUOUS
62
6
100
AcDbCircle
10
186.145976571716
20
220.156562610634
30
0.0
40
0.416666666588
100
AcDbArc
50
180.000000000000
51
270.000000000000
0
ARC
5
8bc
100
AcDbEntity
8
9-A
6
CONTINUOUS
62
6
100
AcDbCircle
10
176.979309906791
20
223.823229276604
30
0.0
40
0.416666666588
100
AcDbArc
50
90.000000000000
51
180.006000000000
0
ARC
5
8bd
100
AcDbEntity
8
9-A
6
CONTINUOUS
62
6
100
AcDbCircle
10
175.495976573740
20
219.323229277459
30
0.0
40
0.416666666588
100
AcDbArc
50
90.000000000000
51
180.000000000000
0
ARC
5
8be
100
AcDbEntity
8
9-A
6
CONTINUOUS
62
6
100
AcDbCircle
10
176.145976573616
20
220.156562610634
30
0.0
40
0.416666666588
100
AcDbArc
50
270.000000000000
51
360.000000000000
0
ARC
5
8bf
100
AcDbEntity
8
9-3
6
CONTINUOUS
62
6
100
AcDbCircle
10
95.674886053926
20
247.268085239227
30
0.0
40
0.833333333175
100
AcDbArc
50
0.000000000000
51
90.000000000000
0
ARC
5
8c0
100
AcDbEntity
8
9-3
6
CONTINUOUS
62
6
100
AcDbCircle
10
90.983219388151
20
247.268085239227
30
0.0
40
0.833333333175
100
AcDbArc
50
90.000000000000
51
180.000000000000
0
ARC
5
8c1
100
AcDbEntity
8
9-A
6
CONTINUOUS
62
6
100
AcDbCircle
10
112.915832552708
20
228.906562608971
30
0.0
40
1.249999999763
100
AcDbArc
50
270.000000000000
51
450.000000000000
0
ARC
5
8c2
100
AcDbEntity
8
9-A
6
CONTINUOUS
62
6
100
AcDbCircle
10
73.745667951097
20
228.906562608971
30
0.0
40
1.249999999763
100
AcDbArc
50
90.000000000000
51
270.000000000000
0
ARC
5
8c3
100
AcDbEntity
8
9-A
6
CONTINUOUS
62
6
100
AcDbCircle
10
89.162334614834
20
223.823229276604
30
0.0
40
0.416666666588
100
AcDbArc
50
90.000000000000
51
180.006000000000
0
ARC
5
8c4
100
AcDbEntity
8
9-A
6
CONTINUOUS
62
6
100
AcDbCircle
10
87.679001281783
20
219.323229277459
30
0.0
40
0.416666666588
100
AcDbArc
50
90.000000000000
51
180.000000000000
0
ARC
5
8c5
100
AcDbEntity
8
9-A
6
CONTINUOUS
62
6
100
AcDbCircle
10
88.329104162318
20
220.156562610634
30
0.0
40
0.416666666588
100
AcDbArc
50
270.000000000000
51
360.000000000000
0
ARC
5
8c6
100
AcDbEntity
8
9-A
6
CONTINUOUS
62
6
100
AcDbCircle
10
97.495770827243
20
223.823229276604
30
0.0
40
0.416666666588
100
AcDbArc
50
359.994000000000
51
450.000000000000
0
ARC
5
8c7
100
AcDbEntity
8
9-A
6
CONTINUOUS
62
6
100
AcDbCircle
10
98.979104160294
20
219.323229277459
30
0.0
40
0.416666666588
100
AcDbArc
50
0.000000000000
51
90.000000000000
0
ARC
5
8c8
100
AcDbEntity
8
9-A
6
CONTINUOUS
62
6
100
AcDbCircle
10
98.329001279759
20
220.156562610634
30
0.0
40
0.416666666588
100
AcDbArc
50
180.000000000000
51
270.000000000000
0
ARC
5
8c9
100
AcDbEntity
8
9-A
6
CONTINUOUS
62
6
100
AcDbCircle
10
93.329104161368
20
226.739895942716
30
0.0
40
4.166666665875
100
AcDbArc
50
351.682000000000
51
372.709000000000
0
ARC
5
8ca
100
AcDbEntity
8
9-A
6
CONTINUOUS
62
6
100
AcDbCircle
10
91.110894285246
20
225.415410346260
30
0.0
40
0.416666666588
100
AcDbArc
50
261.049000000000
51
441.049000000000
0
ARC
5
8cb
100
AcDbEntity
8
9-A
6
CONTINUOUS
62
6
100
AcDbCircle
10
93.329104161368
20
226.739895942716
30
0.0
40
4.166666665875
100
AcDbArc
50
167.291000000000
51
188.318000000000
0
ARC
5
8cc
100
AcDbEntity
8
9-A
6
CONTINUOUS
62
6
100
AcDbCircle
10
93.329104161368
20
226.823229276034
30
0.0
40
4.166666665875
100
AcDbArc
50
324.550000000000
51
339.159000000000
0
ARC
5
8cd
100
AcDbEntity
8
9-A
6
CONTINUOUS
62
6
100
AcDbCircle
10
93.329104161368
20
226.823229276034
30
0.0
40
4.166666665875
100
AcDbArc
50
200.841000000000
51
215.450000000000
0
ARC
5
8ce
100
AcDbEntity
8
9-A
6
CONTINUOUS
62
6
100
AcDbCircle
10
181.145976572666
20
226.823229276034
30
0.0
40
4.166666665875
100
AcDbArc
50
168.463000000000
51
215.450000000000
0
ARC
5
8cf
100
AcDbEntity
8
9-A
6
CONTINUOUS
62
6
100
AcDbCircle
10
181.145976572666
20
226.823229276034
30
0.0
40
4.166666665875
100
AcDbArc
50
324.550000000000
51
371.537000000000
0
ELLIPSE
  5
8d0
100
AcDbEntity
8
9-E
6
CONTINUOUS
62
4
100
AcDbEllipse
10
181.145976572666
20
225.503784831840
30
0.0
11
-0.833333333175
21
0.000000000000
31
0.0
210
0.0
220
0.0
230
1.0
40
0.600000000000
41
0.000000000000
42
3.141592653580
0
ARC
5
8d1
100
AcDbEntity
8
9-0
6
CONTINUOUS
62
7
100
AcDbCircle
10
181.471079453263
20
94.823126420455
30
0.0
40
1.034979423672
100
AcDbArc
50
162.412000000000
51
197.588000000000
0
ARC
5
8d2
100
AcDbEntity
8
9-0
6
CONTINUOUS
62
7
100
AcDbCircle
10
180.712951881390
20
94.354093498734
30
0.0
40
0.276851851799
100
AcDbArc
50
145.615000000000
51
205.614000000000
0
ARC
5
8d3
100
AcDbEntity
8
9-0
6
CONTINUOUS
62
7
100
AcDbCircle
10
180.712951881390
20
95.292262222835
30
0.0
40
0.276851851799
100
AcDbArc
50
154.386000000000
51
214.385000000000
0
TEXT
5
8d4
100
AcDbEntity
8
9-E
62
7
370
-3
100
AcDbText
10
99.252
20
123.698
30
0.0
40
2.203
1
ｽｷﾝﾌﾟﾚ-ﾄ
41
0.794
50
0.000
100
AcDbText
0
MTEXT
5
8d5
100
AcDbEntity
8
9-A
62
7
370
-3
100
AcDbMText
10
90.798
20
166.064
30
0.0
40
2.081
41
0.000
71
7
72
1
1
\W0.972;{\W0.700;ｽﾋﾟﾝﾄﾞﾙ}φ
7
STANDARD
11
0.00000
21
1.00000
31
0.0
0
TEXT
5
8d6
100
AcDbEntity
8
9-E
62
7
370
-3
100
AcDbText
10
92.125
20
64.161
30
0.0
40
2.203
1
Ｃ
41
0.856
50
0.000
100
AcDbText
0
TEXT
5
8d7
100
AcDbEntity
8
9-E
62
7
370
-3
100
AcDbText
10
92.125
20
57.494
30
0.0
40
2.203
1
Ｄ
41
0.856
50
0.000
100
AcDbText
0
TEXT
5
8d8
100
AcDbEntity
8
9-E
62
7
370
-3
100
AcDbText
10
42.326
20
118.619
30
0.0
40
2.203
1
Ｂ
41
0.856
50
90.000
100
AcDbText
0
TEXT
5
8d9
100
AcDbEntity
8
9-E
62
7
370
-3
100
AcDbText
10
35.659
20
124.869
30
0.0
40
2.203
1
Ｅ
41
0.856
50
90.000
100
AcDbText
0
TEXT
5
8da
100
AcDbEntity
8
9-E
62
7
370
-3
100
AcDbText
10
28.993
20
154.036
30
0.0
40
2.203
1
Ｆ
41
0.856
50
90.000
100
AcDbText
0
TEXT
5
8db
100
AcDbEntity
8
9-E
62
7
370
-3
100
AcDbText
10
116.609
20
262.537
30
0.0
40
2.203
1
平巻式巻上機
41
0.856
50
0.000
100
AcDbText
0
TEXT
5
8dc
100
AcDbEntity
8
9-E
62
7
370
-3
100
AcDbText
10
116.534
20
255.870
30
0.0
40
2.203
1
ハンドル
41
0.856
50
0.000
100
AcDbText
0
MTEXT
5
8dd
100
AcDbEntity
8
9-E
62
7
370
-3
100
AcDbMText
10
116.779
20
248.959
30
0.0
40
2.081
41
0.000
71
7
72
1
1
\W0.972;スピンドルカバー{\W0.700;  65A}
7
STANDARD
11
1.00000
21
0.00000
31
0.0
0
TEXT
5
8de
100
AcDbEntity
8
9-B
62
7
370
-3
100
AcDbText
10
159.757
20
120.543
30
0.0
40
2.203
1
水圧方向
41
0.856
50
0.000
100
AcDbText
0
MTEXT
5
8df
100
AcDbEntity
8
9-E
62
7
370
-3
100
AcDbMText
10
161.290
20
151.248
30
0.0
40
2.081
41
0.000
71
7
72
1
1
\W0.972;▽{\W0.700;H.W.L}
7
STANDARD
11
1.00000
21
0.00000
31
0.0
0
TEXT
5
8e0
100
AcDbEntity
8
9-E
62
7
370
-3
100
AcDbText
10
150.659
20
120.538
30
0.0
40
2.203
1
Ｈ
41
0.856
50
90.000
100
AcDbText
0
TEXT
5
8e1
100
AcDbEntity
8
9-E
62
7
370
-3
100
AcDbText
10
142.326
20
94.944
30
0.0
40
2.203
1
100
41
0.689
50
90.000
100
AcDbText
0
TEXT
5
8e2
100
AcDbEntity
8
9-E
62
7
370
-3
100
AcDbText
10
92.125
20
70.827
30
0.0
40
2.203
1
Ａ
41
0.856
50
0.000
100
AcDbText
0
TEXT
5
8e3
100
AcDbEntity
8
9-E
62
7
370
-3
100
AcDbText
10
200.309
20
124.869
30
0.0
40
2.203
1
Ｅ
41
0.856
50
90.000
100
AcDbText
0
TEXT
5
8e4
100
AcDbEntity
8
9-E
62
7
370
-3
100
AcDbText
10
142.326
20
153.277
30
0.0
40
2.203
1
100
41
0.689
50
90.000
100
AcDbText
0
TEXT
5
8e5
100
AcDbEntity
8
9-E
62
7
370
-3
100
AcDbText
10
81.772
20
242.768
30
0.0
40
2.203
1
Ｇ
41
0.856
50
0.000
100
AcDbText
0
LINE
5
8e6
100
AcDbEntity
8
9-E
6
CONTINUOUS
62
4
100
AcDbLine
10
194.132190561968
20
92.739793087518
30
0.0
11
202.145873688018
21
92.739793087518
31
0.0
0
LINE
5
8e7
100
AcDbEntity
8
9-E
6
CONTINUOUS
62
4
100
AcDbLine
10
201.312540354843
20
92.739793087518
30
0.0
11
200.881161754102
21
94.349669630422
31
0.0
0
LINE
5
8e8
100
AcDbEntity
8
9-E
6
CONTINUOUS
62
4
100
AcDbLine
10
201.312540354843
20
92.739793087518
30
0.0
11
201.743918955584
21
94.349669630422
31
0.0
0
LINE
5
8e9
100
AcDbEntity
8
9-0
6
CONTINUOUS
62
4
100
AcDbLine
10
184.645873691343
20
92.739793087518
30
0.0
11
188.637848999226
21
96.731768395401
31
0.0
0
LINE
5
8ea
100
AcDbEntity
8
9-0
6
CONTINUOUS
62
4
100
AcDbLine
10
184.645873691343
20
92.739793087518
30
0.0
11
185.479207024518
21
94.183208725103
31
0.0
0
LINE
5
8eb
100
AcDbEntity
8
9-0
6
CONTINUOUS
62
4
100
AcDbLine
10
184.645873691343
20
92.739793087518
30
0.0
11
186.089289328929
21
93.573126420693
31
0.0
0
LINE
5
8ec
100
AcDbEntity
8
9-0
6
CONTINUOUS
62
4
100
AcDbLine
10
188.637848999226
20
96.731768395401
30
0.0
11
194.945050644118
21
85.807385681427
31
0.0
0
LINE
5
8ed
100
AcDbEntity
8
9-0
6
CONTINUOUS
62
4
100
AcDbLine
10
244.526840758155
20
85.807385681427
30
0.0
11
194.945050644118
21
85.807385681427
31
0.0
0
TEXT
5
8ee
100
AcDbEntity
8
9-0
62
7
370
-3
100
AcDbText
10
198.524
20
85.978
30
0.0
40
2.203
1
開口部は、シ－リング剤充填とする。
41
0.856
50
0.000
100
AcDbText
0
POLYLINE
5
8ef
100
AcDbEntity
  8
2-0
6
CONTINUOUS
62
4
100
AcDb2dPolyline
66
1
10
0
20
0
70
1
40
0.400
41
0.400
0
VERTEX
5
8f0
100
AcDbEntity
  8
2-0
6
CONTINUOUS
62
4
100
AcDbVertex
100
AcDb2dVertex
10
229.414
20
198.878
30
0.0
42
1.000
0
VERTEX
5
8f1
100
AcDbEntity
  8
2-0
6
CONTINUOUS
62
4
100
AcDbVertex
100
AcDb2dVertex
10
229.814
20
198.878
30
0.0
42
1.000
0
SEQEND
5
8f2
100
AcDbEntity
  8
2-0
0
LINE
5
8f3
100
AcDbEntity
8
2-0
6
CONTINUOUS
62
4
100
AcDbLine
10
228.562688051978
20
187.841459362808
30
0.0
11
229.613731230948
21
198.877770331980
31
0.0
0
LINE
5
8f4
100
AcDbEntity
8
2-0
6
CONTINUOUS
62
7
100
AcDbLine
10
226.271710010509
20
199.781643260084
30
0.0
11
226.271710010509
21
207.448293980629
31
0.0
0
LINE
5
8f5
100
AcDbEntity
8
2-0
6
CONTINUOUS
62
3
100
AcDbLine
10
239.771705061713
20
205.448312126216
30
0.0
11
239.771705061713
21
207.114992539539
31
0.0
0
POLYLINE
5
8f6
100
AcDbEntity
8
2-0
6
CONTINUOUS
62
  3
100
AcDb2dPolyline
66
1
10
0.0
20
0.0
30
0.0
70
0
0
VERTEX
5
8f7
100
AcDbEntity
8
2-0
6
CONTINUOUS
62
  3
100
AcDbVertex
100
AcDb2dVertex
10
233.105008152401
20
207.531631712892
30
0.0
0
VERTEX
5
8f8
100
AcDbEntity
8
2-0
6
CONTINUOUS
62
  3
100
AcDbVertex
100
AcDb2dVertex
10
233.105008152401
20
207.114992539539
30
0.0
0
VERTEX
5
8f9
100
AcDbEntity
8
2-0
6
CONTINUOUS
62
  3
100
AcDbVertex
100
AcDb2dVertex
10
239.771705061713
20
207.114992539539
30
0.0
0
SEQEND
5
8fa
100
AcDbEntity
8
2-0
0
LINE
5
8fb
100
AcDbEntity
8
2-0
6
CONTINUOUS
62
3
100
AcDbLine
10
233.271609384981
20
208.115020582719
30
0.0
11
239.605004853203
21
208.115020582719
31
0.0
0
LINE
5
8fc
100
AcDbEntity
8
2-0
6
CONTINUOUS
62
3
100
AcDbLine
10
233.271609384981
20
207.114992539539
30
0.0
11
233.271609384981
21
208.115020582719
31
0.0
0
LINE
5
8fd
100
AcDbEntity
8
2-0
6
CONTINUOUS
62
3
100
AcDbLine
10
239.605004853203
20
207.114992539539
30
0.0
11
239.605004853203
21
208.115020582719
31
0.0
0
LINE
5
8fe
100
AcDbEntity
8
2-0
6
CONTINUOUS
62
7
100
AcDbLine
10
227.938340935868
20
198.114962846760
30
0.0
11
236.438344235066
21
198.114962846760
31
0.0
0
LINE
5
8ff
100
AcDbEntity
8
2-0
6
CONTINUOUS
62
7
100
AcDbLine
10
227.938340935868
20
209.114949649970
30
0.0
11
236.438344235066
21
209.114949649970
31
0.0
0
LINE
5
900
100
AcDbEntity
8
2-0
6
DASHED2
62
3
100
AcDbLine
10
237.104996605209
20
207.448343468593
30
0.0
11
237.771648975353
21
208.115020582719
31
0.0
0
LINE
5
901
100
AcDbEntity
8
2-0
6
DASHED2
62
3
100
AcDbLine
10
236.438344235066
20
207.448343468593
30
0.0
11
237.104996605209
21
207.448343468593
31
0.0
0
LINE
5
902
100
AcDbEntity
8
2-0
6
DASHED2
62
3
100
AcDbLine
10
237.104996605209
20
203.448280783838
30
0.0
11
237.104996605209
21
207.448343468593
31
0.0
0
LINE
5
903
100
AcDbEntity
8
2-0
6
CONTINUOUS
62
3
100
AcDbLine
10
237.938373927844
20
203.181639630966
30
0.0
11
237.938373927844
21
203.448280783838
31
0.0
0
LINE
5
904
100
AcDbEntity
8
2-0
6
CONTINUOUS
62
3
100
AcDbLine
10
236.438344235066
20
201.448348417390
30
0.0
11
237.104996605209
21
201.448348417390
31
0.0
0
LINE
5
905
100
AcDbEntity
8
2-0
6
CONTINUOUS
62
3
100
AcDbLine
10
236.938345884665
20
202.098298599505
30
0.0
11
236.938345884665
21
201.448348417390
31
0.0
0
LINE
5
906
100
AcDbEntity
8
2-0
6
CONTINUOUS
62
3
100
AcDbLine
10
236.438344235066
20
203.181639630966
30
0.0
11
237.938373927844
21
203.181639630966
31
0.0
0
LINE
5
907
100
AcDbEntity
8
2-0
6
DASHED2
62
3
100
AcDbLine
10
235.771667120940
20
207.448343468593
30
0.0
11
235.105064238761
21
208.115020582719
31
0.0
0
LINE
5
908
100
AcDbEntity
8
2-0
6
DASHED2
62
3
100
AcDbLine
10
236.438344235066
20
207.448343468593
30
0.0
11
235.771667120940
21
207.448343468593
31
0.0
0
LINE
5
909
100
AcDbEntity
8
2-0
6
DASHED2
62
3
100
AcDbLine
10
235.771667120940
20
203.448280783838
30
0.0
11
235.771667120940
21
207.448343468593
31
0.0
0
LINE
5
90a
100
AcDbEntity
8
2-0
6
CONTINUOUS
62
3
100
AcDbLine
10
234.938364030252
20
203.181639630966
30
0.0
11
234.938364030252
21
203.448280783838
31
0.0
0
LINE
5
90b
100
AcDbEntity
8
2-0
6
CONTINUOUS
62
3
100
AcDbLine
10
236.438344235066
20
201.448348417390
30
0.0
11
235.771667120940
21
201.448348417390
31
0.0
0
LINE
5
90c
100
AcDbEntity
8
2-0
6
CONTINUOUS
62
3
100
AcDbLine
10
235.938367329449
20
202.098298599505
30
0.0
11
235.938367329449
21
201.448348417390
31
0.0
0
LINE
5
90d
100
AcDbEntity
8
2-0
6
CONTINUOUS
62
3
100
AcDbLine
10
236.438344235066
20
203.181639630966
30
0.0
11
234.938364030252
21
203.181639630966
31
0.0
0
POLYLINE
5
90e
100
AcDbEntity
8
2-0
6
CONTINUOUS
62
  3
100
AcDb2dPolyline
66
1
10
0.0
20
0.0
30
0.0
70
0
0
VERTEX
5
90f
100
AcDbEntity
8
2-0
6
CONTINUOUS
62
  3
100
AcDbVertex
100
AcDb2dVertex
10
227.271663821742
20
203.448280783838
30
0.0
0
VERTEX
5
910
100
AcDbEntity
8
2-0
6
CONTINUOUS
62
  3
100
AcDbVertex
100
AcDb2dVertex
10
227.271663821742
20
205.448312126216
30
0.0
0
VERTEX
5
911
100
AcDbEntity
8
2-0
6
CONTINUOUS
62
  3
100
AcDbVertex
100
AcDb2dVertex
10
251.438294747101
20
205.448312126216
30
0.0
0
SEQEND
5
912
100
AcDbEntity
8
2-0
0
LINE
5
913
100
AcDbEntity
8
2-0
6
CONTINUOUS
62
3
100
AcDbLine
10
227.271663821742
20
203.448280783838
30
0.0
11
251.438294747101
21
203.448280783838
31
0.0
0
LINE
5
914
100
AcDbEntity
8
2-0
6
CONTINUOUS
62
7
100
AcDbLine
10
234.771688565725
20
200.114919957191
30
0.0
11
234.771688565725
21
198.114962846760
31
0.0
0
LINE
5
915
100
AcDbEntity
8
2-0
6
CONTINUOUS
62
4
100
AcDbLine
10
252.174131291654
20
205.448312126216
30
0.0
11
262.761141030885
21
205.448312126216
31
0.0
0
LINE
5
916
100
AcDbEntity
8
2-0
6
CONTINUOUS
62
4
100
AcDbLine
10
252.174131291654
20
203.448280783838
30
0.0
11
262.761141030885
21
203.448280783838
31
0.0
0
LINE
5
917
100
AcDbEntity
8
2-0
6
CENTER
62
3
100
AcDbLine
10
236.438344235066
20
201.125711632656
30
0.0
11
236.438344235066
21
208.734684130544
31
0.0
0
LINE
5
918
100
AcDbEntity
8
2-0
6
CONTINUOUS
62
7
100
AcDbLine
10
227.938340935868
20
196.614957897964
30
0.0
11
236.438344235066
21
196.614957897964
31
0.0
0
LINE
5
919
100
AcDbEntity
8
2-0
6
CONTINUOUS
62
7
100
AcDbLine
10
236.438344235066
20
198.114962846760
30
0.0
11
236.438344235066
21
196.614957897964
31
0.0
0
LINE
5
91a
100
AcDbEntity
8
2-0
6
PHANTOM
62
4
100
AcDbLine
10
251.438294747101
20
210.726871630544
30
0.0
11
251.438294747101
21
196.995272905354
31
0.0
0
LINE
5
91b
100
AcDbEntity
8
2-0
6
CONTINUOUS
62
2
100
AcDbLine
10
239.466067392794
20
205.448312126216
30
0.0
11
239.771705061713
21
205.753900307170
31
0.0
0
LINE
5
91c
100
AcDbEntity
8
2-0
6
CONTINUOUS
62
2
100
AcDbLine
10
239.348236549255
20
205.448312126216
30
0.0
11
239.771705061713
21
205.871731150709
31
0.0
0
LINE
5
91d
100
AcDbEntity
8
2-0
6
CONTINUOUS
62
2
100
AcDbLine
10
238.287561005547
20
205.448312126216
30
0.0
11
239.771705061713
21
206.932456182381
31
0.0
0
LINE
5
91e
100
AcDbEntity
8
2-0
6
CONTINUOUS
62
2
100
AcDbLine
10
238.169680674044
20
205.448312126216
30
0.0
11
239.771705061713
21
207.050262281938
31
0.0
0
LINE
5
91f
100
AcDbEntity
8
2-0
6
CONTINUOUS
62
2
100
AcDbLine
10
237.109005130336
20
205.448312126216
30
0.0
11
238.775759775606
21
207.114992539539
31
0.0
0
LINE
5
920
100
AcDbEntity
8
2-0
6
CONTINUOUS
62
2
100
AcDbLine
10
236.991223774762
20
205.448312126216
30
0.0
11
238.657879444103
21
207.114992539539
31
0.0
0
LINE
5
921
100
AcDbEntity
8
2-0
6
CONTINUOUS
62
2
100
AcDbLine
10
235.930597719018
20
205.448312126216
30
0.0
11
237.597228644377
21
207.114992539539
31
0.0
0
LINE
5
922
100
AcDbEntity
8
2-0
6
CONTINUOUS
62
2
100
AcDbLine
10
235.812667899551
20
205.448312126216
30
0.0
11
237.479323568892
21
207.114992539539
31
0.0
0
LINE
5
923
100
AcDbEntity
8
2-0
6
CONTINUOUS
62
2
100
AcDbLine
10
234.752041843807
20
205.448312126216
30
0.0
11
236.418722257131
21
207.114992539539
31
0.0
0
LINE
5
924
100
AcDbEntity
8
2-0
6
CONTINUOUS
62
2
100
AcDbLine
10
234.634186256286
20
205.448312126216
30
0.0
11
236.300866669610
21
207.114992539539
31
0.0
0
LINE
5
925
100
AcDbEntity
8
2-0
6
CONTINUOUS
62
2
100
AcDbLine
10
233.573535456561
20
205.448312126216
30
0.0
11
235.240240613866
21
207.114992539539
31
0.0
0
LINE
5
926
100
AcDbEntity
8
2-0
6
CONTINUOUS
62
2
100
AcDbLine
10
233.455630381075
20
205.448312126216
30
0.0
11
235.122310794399
21
207.114992539539
31
0.0
0
LINE
5
927
100
AcDbEntity
8
2-0
6
CONTINUOUS
62
2
100
AcDbLine
10
232.395029069314
20
205.448312126216
30
0.0
11
234.061684738655
21
207.114992539539
31
0.0
0
LINE
5
928
100
AcDbEntity
8
2-0
6
CONTINUOUS
62
2
100
AcDbLine
10
232.277148737811
20
205.448312126216
30
0.0
11
233.943829151134
21
207.114992539539
31
0.0
0
LINE
5
929
100
AcDbEntity
8
2-0
6
CONTINUOUS
62
2
100
AcDbLine
10
231.216547426050
20
205.448312126216
30
0.0
11
233.105008152401
21
207.336822340531
31
0.0
0
LINE
5
92a
100
AcDbEntity
8
2-0
6
CONTINUOUS
62
2
100
AcDbLine
10
231.098592862600
20
205.448312126216
30
0.0
11
233.105008152401
21
207.454677928053
31
0.0
0
LINE
5
92b
100
AcDbEntity
8
2-0
6
CONTINUOUS
62
2
100
AcDbLine
10
229.060777459306
20
206.828160297140
30
0.0
11
231.725209469441
21
209.492592307276
31
0.0
0
LINE
5
92c
100
AcDbEntity
8
2-0
6
CONTINUOUS
62
2
100
AcDbLine
10
229.031233144483
20
206.916496313821
30
0.0
11
231.636898196742
21
209.522087134134
31
0.0
0
LINE
5
92d
100
AcDbEntity
8
2-0
6
CONTINUOUS
62
2
100
AcDbLine
10
228.975064304745
20
207.920904041862
30
0.0
11
230.632465724719
21
209.578255973872
31
0.0
0
LINE
5
92e
100
AcDbEntity
8
2-0
6
CONTINUOUS
62
2
100
AcDbLine
10
229.010200759559
20
208.073896084197
30
0.0
11
230.479424194420
21
209.543119519058
31
0.0
0
LINE
5
92f
100
AcDbEntity
8
2-0
6
CONTINUOUS
62
2
100
AcDbLine
10
229.453464457828
20
206.160122263990
30
0.0
11
230.342342532680
21
207.048975594860
31
0.0
0
LINE
5
930
100
AcDbEntity
8
2-0
6
CONTINUOUS
62
2
100
AcDbLine
10
231.504369427739
20
208.211027233901
30
0.0
11
232.393198014627
21
209.099855820789
31
0.0
0
LINE
5
931
100
AcDbEntity
8
2-0
6
CONTINUOUS
62
2
100
AcDbLine
10
229.509633297566
20
206.098509748154
30
0.0
11
230.394354383398
21
206.983156602039
31
0.0
0
LINE
5
932
100
AcDbEntity
8
2-0
6
CONTINUOUS
62
2
100
AcDbLine
10
231.570213164542
20
208.158990639201
30
0.0
11
232.454860018427
21
209.043686981051
31
0.0
0
LINE
5
933
100
AcDbEntity
8
2-0
6
CONTINUOUS
62
2
100
AcDbLine
10
230.123605729470
20
205.651831380333
30
0.0
11
231.186607207511
21
206.714783370409
31
0.0
0
LINE
5
934
100
AcDbEntity
8
2-0
6
CONTINUOUS
62
2
100
AcDbLine
10
231.838611140154
20
207.366787303053
30
0.0
11
232.901538386248
21
208.429714549146
31
0.0
0
LINE
5
935
100
AcDbEntity
8
2-0
6
CONTINUOUS
62
2
100
AcDbLine
10
230.204765991295
20
205.615160798618
30
0.0
11
231.359493411586
21
206.769813986963
31
0.0
0
LINE
5
936
100
AcDbEntity
8
2-0
6
CONTINUOUS
62
2
100
AcDbLine
10
231.783506291654
20
207.193925842960
30
0.0
11
232.938159479998
21
208.348554287322
31
0.0
0
LINE
5
937
100
AcDbEntity
8
2-0
6
CONTINUOUS
62
7
100
AcDbLine
10
205.585740838212
20
210.614979342748
30
0.0
11
236.438344235066
21
210.614979342748
31
0.0
0
POLYLINE
5
938
100
AcDbEntity
8
2-0
6
CONTINUOUS
62
  4
100
AcDb2dPolyline
66
1
10
0.0
20
0.0
30
0.0
70
0
0
VERTEX
5
939
100
AcDbEntity
8
2-0
6
CONTINUOUS
62
  4
100
AcDbVertex
100
AcDb2dVertex
10
261.927763708250
20
209.298846926152
30
0.0
0
VERTEX
5
93a
100
AcDbEntity
8
2-0
6
CONTINUOUS
62
  4
100
AcDbVertex
100
AcDb2dVertex
10
261.927763708250
20
205.448312126216
30
0.0
0
VERTEX
5
93b
100
AcDbEntity
8
2-0
6
CONTINUOUS
62
  4
100
AcDbVertex
100
AcDb2dVertex
10
261.410119599297
20
207.380149053475
30
0.0
0
SEQEND
5
93c
100
AcDbEntity
8
2-0
0
LINE
5
93d
100
AcDbEntity
8
2-0
6
CONTINUOUS
62
4
100
AcDbLine
10
261.927763708250
20
205.448312126216
30
0.0
11
262.445407817203
21
207.380149053475
31
0.0
0
LINE
5
93e
100
AcDbEntity
8
2-0
6
CONTINUOUS
62
4
100
AcDbLine
10
261.927763708250
20
203.448280783838
30
0.0
11
262.445407817203
21
201.516419112596
31
0.0
0
LINE
5
93f
100
AcDbEntity
8
2-0
6
CONTINUOUS
62
4
100
AcDbLine
10
261.927763708250
20
203.448280783838
30
0.0
11
261.410119599297
21
201.516419112596
31
0.0
0
LINE
5
940
100
AcDbEntity
8
2-0
6
CONTINUOUS
62
7
100
AcDbLine
10
236.438344235066
20
223.325888799569
30
0.0
11
236.438344235066
21
209.114949649970
31
0.0
0
LINE
5
941
100
AcDbEntity
8
2-0
6
CONTINUOUS
62
7
100
AcDbLine
10
237.521685266527
20
202.098298599505
30
0.0
11
237.689276258398
21
202.195072314138
31
0.0
0
LINE
5
942
100
AcDbEntity
8
2-0
6
CONTINUOUS
62
7
100
AcDbLine
10
235.355027947587
20
202.098298599505
30
0.0
11
235.187412211734
21
202.195072314138
31
0.0
0
LINE
5
943
100
AcDbEntity
8
2-0
6
CONTINUOUS
62
7
100
AcDbLine
10
237.521685266527
20
202.098298599505
30
0.0
11
235.355027947587
21
202.098298599505
31
0.0
0
LINE
5
944
100
AcDbEntity
8
2-0
6
CONTINUOUS
62
7
100
AcDbLine
10
235.187412211734
20
203.181639630966
30
0.0
11
235.187412211734
21
202.195072314138
31
0.0
0
LINE
5
945
100
AcDbEntity
8
2-0
6
CONTINUOUS
62
7
100
AcDbLine
10
237.689276258398
20
203.181639630966
30
0.0
11
237.689276258398
21
202.195072314138
31
0.0
0
LINE
5
946
100
AcDbEntity
8
2-0
6
CONTINUOUS
62
3
100
AcDbLine
10
235.771667120940
20
202.098298599505
30
0.0
11
235.771667120940
21
201.448348417390
31
0.0
0
LINE
5
947
100
AcDbEntity
8
2-0
6
CONTINUOUS
62
3
100
AcDbLine
10
237.104996605209
20
202.098298599505
30
0.0
11
237.104996605209
21
201.448348417390
31
0.0
0
LINE
5
948
100
AcDbEntity
8
2-0
6
CONTINUOUS
62
7
100
AcDbLine
10
235.812890595391
20
203.181639630966
30
0.0
11
235.812890595391
21
202.195072314138
31
0.0
0
LINE
5
949
100
AcDbEntity
8
2-0
6
CONTINUOUS
62
7
100
AcDbLine
10
237.063797874741
20
203.181639630966
30
0.0
11
237.063797874741
21
202.195072314138
31
0.0
0
LINE
5
94a
100
AcDbEntity
8
2-0
6
CONTINUOUS
62
4
100
AcDbLine
10
261.927763708250
20
205.448312126216
30
0.0
11
261.927763708250
21
194.873525914222
31
0.0
0
ARC
5
94b
100
AcDbEntity
8
2-0
6
CONTINUOUS
62
7
100
AcDbCircle
10
227.938340935868
20
207.448293980629
30
0.0
40
1.666666494833
100
AcDbArc
50
90.000000000000
51
180.000000000000
0
ARC
5
94c
100
AcDbEntity
8
2-0
6
CONTINUOUS
62
7
100
AcDbCircle
10
227.938340935868
20
199.781643260084
30
0.0
40
1.666666494833
100
AcDbArc
50
180.000000000000
51
270.000000000000
0
ARC
5
94d
100
AcDbEntity
8
2-0
6
CONTINUOUS
62
7
100
AcDbCircle
10
227.938340935868
20
199.781643260084
30
0.0
40
3.166666417509
100
AcDbArc
50
180.000000000000
51
270.000000000000
0
CIRCLE
5
94e
100
AcDbEntity
8
2-0
6
CONTINUOUS
62
3
100
AcDbCircle
10
231.021738053689
20
207.531631712892
30
0.0
40
0.833333247417
0
ARC
5
94f
100
AcDbEntity
8
2-0
6
CONTINUOUS
62
3
100
AcDbCircle
10
231.021738053689
20
207.531631712892
30
0.0
40
2.083333311854
100
AcDbArc
50
0.000000000000
51
270.000000000000
0
ARC
5
950
100
AcDbEntity
8
2-0
6
CONTINUOUS
62
7
100
AcDbCircle
10
227.938340935868
20
207.448293980629
30
0.0
40
3.166666417509
100
AcDbArc
50
90.000000000000
51
180.000000000000
0
ARC
5
951
100
AcDbEntity
8
2-0
6
CONTINUOUS
62
7
100
AcDbCircle
10
236.438344235066
20
204.168182203813
30
0.0
40
2.069875678501
100
AcDbArc
50
252.411727905273
51
287.588272094727
0
ARC
5
952
100
AcDbEntity
8
2-0
6
CONTINUOUS
62
7
100
AcDbCircle
10
237.376537066569
20
202.652044178580
30
0.0
40
0.553751136806
100
AcDbArc
50
235.614990234375
51
295.614120483398
0
ARC
5
953
100
AcDbEntity
8
2-0
6
CONTINUOUS
62
7
100
AcDbCircle
10
235.500151403562
20
202.652044178580
30
0.0
40
0.553751136806
100
AcDbArc
50
244.385879516602
51
304.385009765625
0
POLYLINE
5
954
100
AcDbEntity
  8
2-0
6
CONTINUOUS
62
4
100
AcDb2dPolyline
66
1
10
0
20
0
70
1
40
0.400
41
0.400
0
VERTEX
5
955
100
AcDbEntity
  8
2-0
6
CONTINUOUS
62
4
100
AcDbVertex
100
AcDb2dVertex
10
229.899
20
208.518
30
0.0
42
1.000
0
VERTEX
5
956
100
AcDbEntity
  8
2-0
6
CONTINUOUS
62
4
100
AcDbVertex
100
AcDb2dVertex
10
230.299
20
208.518
30
0.0
42
1.000
0
SEQEND
5
957
100
AcDbEntity
  8
2-0
0
LINE
5
958
100
AcDbEntity
8
2-0
6
CONTINUOUS
62
4
100
AcDbLine
10
240.744277095145
20
218.709174852388
30
0.0
11
230.099430858799
21
208.517629918129
31
0.0
0
LINE
5
959
100
AcDbEntity
8
2-0
6
CONTINUOUS
62
4
100
AcDbLine
10
224.771729805695
20
232.144429156634
30
0.0
11
236.438344235066
21
232.144429156634
31
0.0
0
LINE
5
95a
100
AcDbEntity
8
2-0
6
CONTINUOUS
62
4
100
AcDbLine
10
224.771729805695
20
232.144429156634
30
0.0
11
226.703591476937
21
232.662073265587
31
0.0
0
LINE
5
95b
100
AcDbEntity
8
2-0
6
CONTINUOUS
62
4
100
AcDbLine
10
224.771729805695
20
232.144429156634
30
0.0
11
226.703591476937
21
231.626785047681
31
0.0
0
LINE
5
95c
100
AcDbEntity
8
2-0
6
CONTINUOUS
62
4
100
AcDbLine
10
236.438344235066
20
232.144429156634
30
0.0
11
234.506482563824
21
232.662073265587
31
0.0
0
LINE
5
95d
100
AcDbEntity
8
2-0
6
CONTINUOUS
62
4
100
AcDbLine
10
236.438344235066
20
232.144429156634
30
0.0
11
234.506482563824
21
231.626785047681
31
0.0
0
LINE
5
95e
100
AcDbEntity
8
2-0
6
CONTINUOUS
62
4
100
AcDbLine
10
236.438344235066
20
240.144455550215
30
0.0
11
234.506482563824
21
240.662099659168
31
0.0
0
LINE
5
95f
100
AcDbEntity
8
2-0
6
CONTINUOUS
62
4
100
AcDbLine
10
236.438344235066
20
240.144455550215
30
0.0
11
234.506482563824
21
239.626811441262
31
0.0
0
LINE
5
960
100
AcDbEntity
8
2-0
6
CONTINUOUS
62
4
100
AcDbLine
10
236.438368979048
20
248.144457199814
30
0.0
11
234.506507307806
21
248.662101308766
31
0.0
0
LINE
5
961
100
AcDbEntity
8
2-0
6
CONTINUOUS
62
4
100
AcDbLine
10
236.438368979048
20
248.144457199814
30
0.0
11
234.506507307806
21
247.626813090861
31
0.0
0
LINE
5
962
100
AcDbEntity
8
2-0
6
CONTINUOUS
62
4
100
AcDbLine
10
224.771729805695
20
211.647595210569
30
0.0
11
224.771729805695
21
233.144432455831
31
0.0
0
LINE
5
963
100
AcDbEntity
8
2-0
6
CONTINUOUS
62
4
100
AcDbLine
10
236.438368979048
20
224.426501130650
30
0.0
11
236.438368979048
21
249.144460499011
31
0.0
0
LINE
5
964
100
AcDbEntity
8
2-0
6
CONTINUOUS
62
4
100
AcDbLine
10
236.438368979048
20
248.144457199814
30
0.0
11
238.370230650290
21
248.662101308766
31
0.0
0
LINE
5
965
100
AcDbEntity
8
2-0
6
CONTINUOUS
62
4
100
AcDbLine
10
236.438368979048
20
248.144457199814
30
0.0
11
238.370230650290
21
247.626813090861
31
0.0
0
LINE
5
966
100
AcDbEntity
8
2-0
6
CONTINUOUS
62
4
100
AcDbLine
10
236.438368979048
20
248.144457199814
30
0.0
11
283.102748202021
21
248.144457199814
31
0.0
0
LINE
5
967
100
AcDbEntity
8
2-0
6
CONTINUOUS
62
7
100
AcDbLine
10
229.771658323080
20
200.114919957191
30
0.0
11
234.771688565725
21
200.114919957191
31
0.0
0
LINE
5
968
100
AcDbEntity
8
2-0
6
CONTINUOUS
62
7
100
AcDbLine
10
229.771658323080
20
200.114919957191
30
0.0
11
229.771658323080
21
198.114962846760
31
0.0
0
LINE
5
969
100
AcDbEntity
8
2-0
6
CONTINUOUS
62
7
100
AcDbLine
10
229.771658323080
20
199.281616866503
30
0.0
11
234.771688565725
21
199.281616866503
31
0.0
0
LINE
5
96a
100
AcDbEntity
8
2-0
6
CONTINUOUS
62
7
100
AcDbLine
10
229.771658323080
20
199.781643260084
30
0.0
11
234.771688565725
21
199.781643260084
31
0.0
0
LINE
5
96b
100
AcDbEntity
8
2-0
6
CONTINUOUS
62
7
100
AcDbLine
10
233.271664371609
20
203.448280783838
30
0.0
11
233.271664371609
21
200.114919957191
31
0.0
0
LINE
5
96c
100
AcDbEntity
8
2-0
6
CONTINUOUS
62
7
100
AcDbLine
10
231.271682517196
20
203.448280783838
30
0.0
11
231.271682517196
21
200.114919957191
31
0.0
0
LINE
5
96d
100
AcDbEntity
8
2-0
6
CONTINUOUS
62
7
100
AcDbLine
10
231.271682517196
20
200.948297279826
30
0.0
11
233.271664371609
21
200.948297279826
31
0.0
0
LINE
5
96e
100
AcDbEntity
8
2-0
6
CENTER
62
7
100
AcDbLine
10
232.271661072411
20
204.258374019163
30
0.0
11
232.271661072411
21
197.226752859429
31
0.0
0
LINE
5
96f
100
AcDbEntity
8
2-0
6
CONTINUOUS
62
4
100
AcDbLine
10
240.744277095145
20
234.709178151585
30
0.0
11
240.744277095145
21
218.709174852388
31
0.0
0
LINE
5
970
100
AcDbEntity
8
2-0
6
CONTINUOUS
62
7
100
AcDbLine
10
224.771674518360
20
207.448293980629
30
0.0
11
224.771674518360
21
199.781643260084
31
0.0
0
ARC
5
971
100
AcDbEntity
8
2-0
6
CONTINUOUS
62
2
100
AcDbCircle
10
221.271604436185
20
209.114977693150
30
0.0
40
1.500000000000
100
AcDbArc
50
0.000000000000
51
90.000000000000
0
ARC
5
972
100
AcDbEntity
8
2-0
6
CONTINUOUS
62
2
100
AcDbCircle
10
221.271604436185
20
209.114977693150
30
0.0
40
0.500000000000
100
AcDbArc
50
0.588713097936
51
89.852822333277
0
LINE
5
973
100
AcDbEntity
8
2-0
6
CONTINUOUS
62
7
100
AcDbLine
10
271.117178133033
20
198.829445334619
30
0.0
11
269.783873392746
21
198.829445334619
31
0.0
0
LINE
5
974
100
AcDbEntity
8
2-0
6
CONTINUOUS
62
7
100
AcDbLine
10
273.783886589536
20
198.829445334619
30
0.0
11
275.117191329823
21
198.829445334619
31
0.0
0
LINE
5
975
100
AcDbEntity
8
2-0
6
CONTINUOUS
62
7
100
AcDbLine
10
269.783873392746
20
198.829445334619
30
0.0
11
272.450532361284
21
203.448280783838
31
0.0
0
LINE
5
976
100
AcDbEntity
8
2-0
6
CONTINUOUS
62
7
100
AcDbLine
10
275.117191329823
20
198.829445334619
30
0.0
11
272.450532361284
21
203.448280783838
31
0.0
0
LINE
5
977
100
AcDbEntity
8
2-0
6
CONTINUOUS
62
7
100
AcDbLine
10
271.117202877015
20
184.162796263673
30
0.0
11
271.117178133033
21
198.829445334619
31
0.0
0
LINE
5
978
100
AcDbEntity
8
2-0
6
CONTINUOUS
62
7
100
AcDbLine
10
273.783886589536
20
184.162796263673
30
0.0
11
273.783886589536
21
198.829445334619
31
0.0
0
LINE
5
979
100
AcDbEntity
8
2-0
6
CONTINUOUS
62
7
100
AcDbLine
10
271.117202877015
20
184.162796263673
30
0.0
11
273.783886589536
21
184.162796263673
31
0.0
0
LINE
5
97a
100
AcDbEntity
8
2-0
6
CONTINUOUS
62
2
100
AcDbLine
10
221.771578042604
20
198.948309926750
30
0.0
11
222.771630829766
21
198.948309926750
31
0.0
0
LINE
5
97b
100
AcDbEntity
8
2-0
6
CONTINUOUS
62
2
100
AcDbLine
10
221.771578042604
20
198.948309926750
30
0.0
11
221.771578042604
21
209.120115093706
31
0.0
0
LINE
5
97c
100
AcDbEntity
8
2-0
6
CONTINUOUS
62
2
100
AcDbLine
10
222.771630829766
20
198.948309926750
30
0.0
11
222.771630829766
21
209.114977693150
31
0.0
0
POLYLINE
5
97d
100
AcDbEntity
8
2-0
6
CONTINUOUS
62
  7
100
AcDb2dPolyline
66
1
10
0.0
20
0.0
30
0.0
70
0
0
VERTEX
5
97e
100
AcDbEntity
8
2-0
6
CONTINUOUS
62
  7
100
AcDbVertex
100
AcDb2dVertex
10
221.771621731197
20
201.614976593417
30
0.0
0
VERTEX
5
97f
100
AcDbEntity
8
2-0
6
CONTINUOUS
62
  7
100
AcDbVertex
100
AcDb2dVertex
10
221.388287889238
20
201.614976593417
30
0.0
0
VERTEX
5
980
100
AcDbEntity
8
2-0
6
CONTINUOUS
62
  7
100
AcDbVertex
100
AcDb2dVertex
10
221.388287889238
20
205.614976593417
30
0.0
0
VERTEX
5
981
100
AcDbEntity
8
2-0
6
CONTINUOUS
62
  7
100
AcDbVertex
100
AcDb2dVertex
10
221.771621731197
20
205.614976593417
30
0.0
0
VERTEX
5
982
100
AcDbEntity
8
2-0
6
CONTINUOUS
62
  7
100
AcDbVertex
100
AcDb2dVertex
10
221.771621731197
20
201.614976593417
30
0.0
0
SEQEND
5
983
100
AcDbEntity
8
2-0
0
LINE
5
984
100
AcDbEntity
8
2-0
6
CONTINUOUS
62
3
100
AcDbLine
10
224.771674518360
20
206.781643260084
30
0.0
11
222.771674518360
21
206.781643260084
31
0.0
0
LINE
5
985
100
AcDbEntity
8
2-0
6
CONTINUOUS
62
3
100
AcDbLine
10
222.771674518360
20
206.948309926750
30
0.0
11
222.771674518360
21
200.281643260084
31
0.0
0
LINE
5
986
100
AcDbEntity
8
2-0
6
CONTINUOUS
62
3
100
AcDbLine
10
224.771674518360
20
200.448309926750
30
0.0
11
222.771674518360
21
200.448309926750
31
0.0
0
LINE
5
987
100
AcDbEntity
8
2-0
6
DOT
62
3
100
AcDbLine
10
222.771630829766
20
204.614976593417
30
0.0
11
224.771674518360
21
204.614976593417
31
0.0
0
LINE
5
988
100
AcDbEntity
8
2-0
6
DOT
62
3
100
AcDbLine
10
222.771630829766
20
204.481643228295
30
0.0
11
224.771674518360
21
204.481643228295
31
0.0
0
LINE
5
989
100
AcDbEntity
8
2-0
6
DOT
62
3
100
AcDbLine
10
222.771630829766
20
202.748309958540
30
0.0
11
224.771674518360
21
202.748309958540
31
0.0
0
LINE
5
98a
100
AcDbEntity
8
2-0
6
DOT
62
3
100
AcDbLine
10
222.771630829766
20
202.614976593417
30
0.0
11
224.771674518360
21
202.614976593417
31
0.0
0
LINE
5
98b
100
AcDbEntity
8
2-0
6
CONTINUOUS
62
7
100
AcDbLine
10
220.888287889238
20
204.748309958540
30
0.0
11
220.888287889238
21
205.439976561628
31
0.0
0
LINE
5
98c
100
AcDbEntity
8
2-0
6
CONTINUOUS
62
7
100
AcDbLine
10
220.888287889238
20
202.481643228295
30
0.0
11
220.888287889238
21
201.789976625206
31
0.0
0
LINE
5
98d
100
AcDbEntity
8
2-0
6
CONTINUOUS
62
7
100
AcDbLine
10
220.888287889238
20
204.748309958540
30
0.0
11
220.888287889238
21
202.481643228295
31
0.0
0
LINE
5
98e
100
AcDbEntity
8
2-0
6
CONTINUOUS
62
7
100
AcDbLine
10
219.742593156572
20
205.439976561628
30
0.0
11
220.888287889238
21
205.439976561628
31
0.0
0
LINE
5
98f
100
AcDbEntity
8
2-0
6
CONTINUOUS
62
7
100
AcDbLine
10
219.554954555904
20
205.114976593417
30
0.0
11
219.742593156572
21
205.439976561628
31
0.0
0
LINE
5
990
100
AcDbEntity
8
2-0
6
CONTINUOUS
62
7
100
AcDbLine
10
219.554954555904
20
202.114976593417
30
0.0
11
219.742593156572
21
201.789976625206
31
0.0
0
LINE
5
991
100
AcDbEntity
8
2-0
6
CONTINUOUS
62
7
100
AcDbLine
10
220.888287889238
20
201.789976625206
30
0.0
11
219.742593156572
21
201.789976625206
31
0.0
0
LINE
5
992
100
AcDbEntity
8
2-0
6
CONTINUOUS
62
7
100
AcDbLine
10
219.554954555904
20
205.114976593417
30
0.0
11
219.554954555904
21
202.114976593417
31
0.0
0
LINE
5
993
100
AcDbEntity
8
2-0
6
CONTINUOUS
62
7
100
AcDbLine
10
220.888287889238
20
204.527476577523
30
0.0
11
219.742593156572
21
204.527476577523
31
0.0
0
LINE
5
994
100
AcDbEntity
8
2-0
6
CONTINUOUS
62
7
100
AcDbLine
10
220.888287889238
20
202.702476609312
30
0.0
11
219.742593156572
21
202.702476609312
31
0.0
0
ARC
5
995
100
AcDbEntity
8
2-0
6
CONTINUOUS
62
7
100
AcDbCircle
10
220.420090384559
20
204.983726529839
30
0.0
40
0.816802183787
100
AcDbArc
50
146.042282104492
51
213.957702636719
0
ARC
5
996
100
AcDbEntity
8
2-0
6
CONTINUOUS
62
7
100
AcDbCircle
10
222.661538469072
20
203.614976593417
30
0.0
40
3.058250427246
100
AcDbArc
50
162.640075683594
51
197.359909057617
0
ARC
5
997
100
AcDbEntity
8
2-0
6
CONTINUOUS
62
7
100
AcDbCircle
10
220.420090384559
20
202.246226656995
30
0.0
40
0.816802183787
100
AcDbArc
50
146.042282104492
51
213.957702636719
0
ARC
5
998
100
AcDbEntity
8
2-0
6
DOT
62
7
100
AcDbCircle
10
221.021621731197
20
202.481643228295
30
0.0
40
0.133333335320
100
AcDbArc
50
90.000000000000
51
180.000000000000
0
ARC
5
999
100
AcDbEntity
8
2-0
6
DOT
62
7
100
AcDbCircle
10
221.021621731197
20
204.748309958540
30
0.0
40
0.133333335320
100
AcDbArc
50
180.000000000000
51
270.000000000000
0
LINE
5
99a
100
AcDbEntity
8
2-0
6
DOT
62
7
100
AcDbLine
10
221.021621731197
20
202.614976593417
30
0.0
11
223.888287889238
21
202.614976593417
31
0.0
0
LINE
5
99b
100
AcDbEntity
8
2-0
6
DOT
62
7
100
AcDbLine
10
223.888287889238
20
202.781643260084
30
0.0
11
220.888287889238
21
202.781643260084
31
0.0
0
LINE
5
99c
100
AcDbEntity
8
2-0
6
DOT
62
7
100
AcDbLine
10
220.888287889238
20
204.448309926750
30
0.0
11
223.888287889238
21
204.448309926750
31
0.0
0
POLYLINE
5
99d
100
AcDbEntity
8
2-0
6
DOT
62
  7
100
AcDb2dPolyline
66
1
10
0.0
20
0.0
30
0.0
70
0
0
VERTEX
5
99e
100
AcDbEntity
8
2-0
6
DOT
62
  7
100
AcDbVertex
100
AcDb2dVertex
10
221.021621731197
20
204.614976593417
30
0.0
0
VERTEX
5
99f
100
AcDbEntity
8
2-0
6
DOT
62
  7
100
AcDbVertex
100
AcDb2dVertex
10
223.888287889238
20
204.614976593417
30
0.0
0
VERTEX
5
9a0
100
AcDbEntity
8
2-0
6
DOT
62
  7
100
AcDbVertex
100
AcDb2dVertex
10
224.221621222571
20
204.281643260084
30
0.0
0
SEQEND
5
9a1
100
AcDbEntity
8
2-0
0
LINE
5
9a2
100
AcDbEntity
8
2-0
6
DOT
62
7
100
AcDbLine
10
223.888287889238
20
202.614976593417
30
0.0
11
224.221621222571
21
202.948309926750
31
0.0
0
LINE
5
9a3
100
AcDbEntity
8
2-0
6
DOT
62
7
100
AcDbLine
10
223.888287889238
20
204.614976593417
30
0.0
11
223.888287889238
21
202.614976593417
31
0.0
0
LINE
5
9a4
100
AcDbEntity
8
2-0
6
DOT
62
7
100
AcDbLine
10
224.221621222571
20
204.281643260084
30
0.0
11
224.221621222571
21
202.948309926750
31
0.0
0
LINE
5
9a5
100
AcDbEntity
8
2-0
6
CONTINUOUS
62
7
100
AcDbLine
10
220.888287889238
20
205.406643260084
30
0.0
11
221.388287889238
21
205.406643260084
31
0.0
0
LINE
5
9a6
100
AcDbEntity
8
2-0
6
CONTINUOUS
62
7
100
AcDbLine
10
220.888287889238
20
201.823309926750
30
0.0
11
221.388287889238
21
201.823309926750
31
0.0
0
LINE
5
9a7
100
AcDbEntity
8
2-0
6
CONTINUOUS
62
7
100
AcDbLine
10
221.388287889238
20
203.720639026120
30
0.0
11
220.888287889238
21
204.009314160715
31
0.0
0
LINE
5
9a8
100
AcDbEntity
8
2-0
6
CONTINUOUS
62
7
100
AcDbLine
10
221.388287889238
20
203.220639026120
30
0.0
11
220.888287889238
21
203.509314160715
31
0.0
0
LINE
5
9a9
100
AcDbEntity
8
2-0
6
CENTER
62
4
100
AcDbLine
10
218.734747626385
20
203.614976593417
30
0.0
11
225.864755674411
21
203.614976593417
31
0.0
0
LINE
5
9aa
100
AcDbEntity
8
2-0
6
CONTINUOUS
62
2
100
AcDbLine
10
210.271603336452
20
209.614976043551
30
0.0
11
210.271603336452
21
210.614979342748
31
0.0
0
LINE
5
9ab
100
AcDbEntity
8
2-0
6
CONTINUOUS
62
2
100
AcDbLine
10
210.271603336452
20
209.614976043551
30
0.0
11
221.272888802207
21
209.614976043551
31
0.0
0
LINE
5
9ac
100
AcDbEntity
8
2-0
6
CONTINUOUS
62
2
100
AcDbLine
10
210.271603336452
20
210.614979342748
30
0.0
11
221.271604436185
21
210.614979342748
31
0.0
0
LINE
5
9ad
100
AcDbEntity
8
2-0
6
CONTINUOUS
62
4
100
AcDbLine
10
210.271702312381
20
211.394513759978
30
0.0
11
210.271702312381
21
249.144460499011
31
0.0
0
LINE
5
9ae
100
AcDbEntity
8
2-0
6
CONTINUOUS
62
4
100
AcDbLine
10
210.271702312381
20
248.144457199814
30
0.0
11
212.203563983623
21
248.662101308766
31
0.0
0
LINE
5
9af
100
AcDbEntity
8
2-0
6
CONTINUOUS
62
4
100
AcDbLine
10
210.271702312381
20
248.144457199814
30
0.0
11
212.203563983623
21
247.626813090861
31
0.0
0
LINE
5
9b0
100
AcDbEntity
8
2-0
6
CONTINUOUS
62
4
100
AcDbLine
10
210.271702312381
20
248.144457199814
30
0.0
11
236.438368979048
21
248.144457199814
31
0.0
0
LINE
5
9b1
100
AcDbEntity
8
2-0
6
CONTINUOUS
62
4
100
AcDbLine
10
216.169622637377
20
207.723546039328
30
0.0
11
216.169622637377
21
209.215014314243
31
0.0
0
LINE
5
9b2
100
AcDbEntity
8
2-0
6
CONTINUOUS
62
4
100
AcDbLine
10
212.707098223315
20
207.723546039328
30
0.0
11
212.707098223315
21
209.215014314243
31
0.0
0
LINE
5
9b3
100
AcDbEntity
8
2-0
6
CONTINUOUS
62
4
100
AcDbLine
10
212.938330737567
20
207.589978023069
30
0.0
11
215.938390123125
21
207.589978023069
31
0.0
0
LINE
5
9b4
100
AcDbEntity
8
2-0
6
CONTINUOUS
62
4
100
AcDbLine
10
213.573929409970
20
207.723546039328
30
0.0
11
213.573929409970
21
209.215014314243
31
0.0
0
LINE
5
9b5
100
AcDbEntity
8
2-0
6
CONTINUOUS
62
4
100
AcDbLine
10
215.302791450722
20
207.723546039328
30
0.0
11
215.302791450722
21
209.215014314243
31
0.0
0
LINE
5
9b6
100
AcDbEntity
8
2-0
6
CONTINUOUS
62
4
100
AcDbLine
10
212.938330737567
20
207.589978023069
30
0.0
11
212.805826712546
21
207.666486416228
31
0.0
0
LINE
5
9b7
100
AcDbEntity
8
2-0
6
CONTINUOUS
62
4
100
AcDbLine
10
215.938390123125
20
207.589978023069
30
0.0
11
216.070844660181
21
207.666486416228
31
0.0
0
LINE
5
9b8
100
AcDbEntity
8
2-0
6
CONTINUOUS
62
4
100
AcDbLine
10
213.438381875130
20
206.739948000371
30
0.0
11
213.438381875130
21
207.589978023069
31
0.0
0
LINE
5
9b9
100
AcDbEntity
8
2-0
6
CONTINUOUS
62
4
100
AcDbLine
10
215.438338985561
20
206.739948000371
30
0.0
11
215.438338985561
21
207.589978023069
31
0.0
0
LINE
5
9ba
100
AcDbEntity
8
2-0
6
CONTINUOUS
62
4
100
AcDbLine
10
212.271678367424
20
209.215014314243
30
0.0
11
212.271678367424
21
209.614976043551
31
0.0
0
LINE
5
9bb
100
AcDbEntity
8
2-0
6
CONTINUOUS
62
4
100
AcDbLine
10
216.605042493268
20
209.215014314243
30
0.0
11
212.271678367424
21
209.215014314243
31
0.0
0
LINE
5
9bc
100
AcDbEntity
8
2-0
6
CONTINUOUS
62
4
100
AcDbLine
10
216.605042493268
20
209.215014314243
30
0.0
11
216.605042493268
21
209.614976043551
31
0.0
0
LINE
5
9bd
100
AcDbEntity
8
2-0
6
CONTINUOUS
62
4
100
AcDbLine
10
213.438381875130
20
206.739948000371
30
0.0
11
215.438338985561
21
206.739948000371
31
0.0
0
LINE
5
9be
100
AcDbEntity
8
2-0
6
CONTINUOUS
62
4
100
AcDbLine
10
213.813376926334
20
206.739948000371
30
0.0
11
213.813376926334
21
207.589978023069
31
0.0
0
LINE
5
9bf
100
AcDbEntity
8
2-0
6
CONTINUOUS
62
4
100
AcDbLine
10
215.063343934358
20
206.739948000371
30
0.0
11
215.063343934358
21
207.589978023069
31
0.0
0
POLYLINE
5
9c0
100
AcDbEntity
8
2-0
6
CONTINUOUS
62
  4
100
AcDb2dPolyline
66
1
10
0.0
20
0.0
30
0.0
70
0
0
VERTEX
5
9c1
100
AcDbEntity
8
2-0
6
CONTINUOUS
62
  4
100
AcDbVertex
100
AcDb2dVertex
10
213.438381875130
20
215.212572083194
30
0.0
0
VERTEX
5
9c2
100
AcDbEntity
8
2-0
6
CONTINUOUS
62
  4
100
AcDbVertex
100
AcDb2dVertex
10
212.938380225532
20
221.115013984324
30
0.0
0
VERTEX
5
9c3
100
AcDbEntity
8
2-0
6
CONTINUOUS
62
  4
100
AcDbVertex
100
AcDb2dVertex
10
213.938383524729
20
221.115013984324
30
0.0
0
SEQEND
5
9c4
100
AcDbEntity
8
2-0
0
LINE
5
9c5
100
AcDbEntity
8
2-0
6
CONTINUOUS
62
4
100
AcDbLine
10
214.438360430346
20
215.212572083194
30
0.0
11
213.938383524729
21
221.115013984324
31
0.0
0
LINE
5
9c6
100
AcDbEntity
8
2-0
6
CONTINUOUS
62
4
100
AcDbLine
10
213.438381875130
20
215.212572083194
30
0.0
11
215.438338985561
21
215.212572083194
31
0.0
0
LINE
5
9c7
100
AcDbEntity
8
2-0
6
CONTINUOUS
62
4
100
AcDbLine
10
213.366945998336
20
216.055797510770
30
0.0
11
214.366924553551
21
216.055797510770
31
0.0
0
LINE
5
9c8
100
AcDbEntity
8
2-0
6
CONTINUOUS
62
4
100
AcDbLine
10
213.295510121541
20
216.898973450382
30
0.0
11
214.295488676756
21
216.898973450382
31
0.0
0
LINE
5
9c9
100
AcDbEntity
8
2-0
6
CONTINUOUS
62
4
100
AcDbLine
10
213.224098988728
20
217.742198877957
30
0.0
11
214.224077543944
21
217.742198877957
31
0.0
0
LINE
5
9ca
100
AcDbEntity
8
2-0
6
CONTINUOUS
62
4
100
AcDbLine
10
213.152663111934
20
218.585387189560
30
0.0
11
214.152691155114
21
218.585387189560
31
0.0
0
LINE
5
9cb
100
AcDbEntity
8
2-0
6
CONTINUOUS
62
4
100
AcDbLine
10
213.081227235139
20
219.428612617136
30
0.0
11
214.081255278319
21
219.428612617136
31
0.0
0
LINE
5
9cc
100
AcDbEntity
8
2-0
6
CONTINUOUS
62
4
100
AcDbLine
10
213.009791358344
20
220.271788556748
30
0.0
11
214.009819401524
21
220.271788556748
31
0.0
0
POLYLINE
5
9cd
100
AcDbEntity
8
2-0
6
CONTINUOUS
62
  4
100
AcDb2dPolyline
66
1
10
0.0
20
0.0
30
0.0
70
0
0
VERTEX
5
9ce
100
AcDbEntity
8
2-0
6
CONTINUOUS
62
  4
100
AcDbVertex
100
AcDb2dVertex
10
215.438338985561
20
215.212572083194
30
0.0
0
VERTEX
5
9cf
100
AcDbEntity
8
2-0
6
CONTINUOUS
62
  4
100
AcDbVertex
100
AcDb2dVertex
10
215.938340635160
20
221.115013984324
30
0.0
0
VERTEX
5
9d0
100
AcDbEntity
8
2-0
6
CONTINUOUS
62
  4
100
AcDbVertex
100
AcDb2dVertex
10
214.938337335962
20
221.115013984324
30
0.0
0
SEQEND
5
9d1
100
AcDbEntity
8
2-0
0
LINE
5
9d2
100
AcDbEntity
8
2-0
6
CONTINUOUS
62
4
100
AcDbLine
10
214.438360430346
20
215.212572083194
30
0.0
11
214.938337335962
21
221.115013984324
31
0.0
0
LINE
5
9d3
100
AcDbEntity
8
2-0
6
CONTINUOUS
62
4
100
AcDbLine
10
215.509774862356
20
216.055797510770
30
0.0
11
214.509796307141
21
216.055797510770
31
0.0
0
LINE
5
9d4
100
AcDbEntity
8
2-0
6
CONTINUOUS
62
4
100
AcDbLine
10
215.581210739151
20
216.898973450382
30
0.0
11
214.581232183935
21
216.898973450382
31
0.0
0
LINE
5
9d5
100
AcDbEntity
8
2-0
6
CONTINUOUS
62
4
100
AcDbLine
10
215.652621871963
20
217.742198877957
30
0.0
11
214.652643316748
21
217.742198877957
31
0.0
0
LINE
5
9d6
100
AcDbEntity
8
2-0
6
CONTINUOUS
62
4
100
AcDbLine
10
215.724057748758
20
218.585387189560
30
0.0
11
214.724029705578
21
218.585387189560
31
0.0
0
LINE
5
9d7
100
AcDbEntity
8
2-0
6
CONTINUOUS
62
4
100
AcDbLine
10
215.795493625553
20
219.428612617136
30
0.0
11
214.795465582373
21
219.428612617136
31
0.0
0
LINE
5
9d8
100
AcDbEntity
8
2-0
6
CONTINUOUS
62
4
100
AcDbLine
10
215.866929502347
20
220.271788556748
30
0.0
11
214.866901459168
21
220.271788556748
31
0.0
0
LINE
5
9d9
100
AcDbEntity
8
2-0
6
CONTINUOUS
62
4
100
AcDbLine
10
215.438338985561
20
210.614979342748
30
0.0
11
215.438338985561
21
215.212572083194
31
0.0
0
LINE
5
9da
100
AcDbEntity
8
2-0
6
CONTINUOUS
62
4
100
AcDbLine
10
213.438381875130
20
210.614979342748
30
0.0
11
213.438381875130
21
215.212572083194
31
0.0
0
ARC
5
9db
100
AcDbEntity
8
2-0
6
CONTINUOUS
62
4
100
AcDbCircle
10
213.140489072660
20
208.360208702968
30
0.0
40
0.770239427283
100
AcDbArc
50
235.757293701172
51
304.243194580078
0
ARC
5
9dc
100
AcDbEntity
8
2-0
6
CONTINUOUS
62
4
100
AcDbCircle
10
214.438360430346
20
210.455058985379
30
0.0
40
2.865078255937
100
AcDbArc
50
252.439666748047
51
287.560333251953
0
ARC
5
9dd
100
AcDbEntity
8
2-0
6
CONTINUOUS
62
4
100
AcDbCircle
10
215.736207044049
20
208.360208702968
30
0.0
40
0.770239427283
100
AcDbArc
50
235.756805419922
51
304.242706298828
0
ARC
5
9de
100
AcDbEntity
8
2-0
6
CONTINUOUS
62
4
100
AcDbCircle
10
214.438360430346
20
209.919747673091
30
0.0
40
3.333333376292
100
AcDbArc
50
252.542709350586
51
287.457290649414
0
LINE
5
9df
100
AcDbEntity
8
2-0
6
CENTER
62
4
100
AcDbLine
10
214.438360430346
20
206.096183813821
30
0.0
11
214.438360430346
21
221.731238118614
31
0.0
0
LINE
5
9e0
100
AcDbEntity
8
2-0
6
CONTINUOUS
62
4
100
AcDbLine
10
214.438360430346
20
240.144455550215
30
0.0
11
236.438344235066
21
240.144455550215
31
0.0
0
LINE
5
9e1
100
AcDbEntity
8
2-0
6
CONTINUOUS
62
4
100
AcDbLine
10
214.438360430346
20
223.325888799569
30
0.0
11
214.438360430346
21
241.144458849413
31
0.0
0
LINE
5
9e2
100
AcDbEntity
8
2-0
6
CONTINUOUS
62
4
100
AcDbLine
10
214.438360430346
20
240.144455550215
30
0.0
11
216.370222101587
21
240.662099659168
31
0.0
0
LINE
5
9e3
100
AcDbEntity
8
2-0
6
CONTINUOUS
62
4
100
AcDbLine
10
214.438360430346
20
240.144455550215
30
0.0
11
216.370222101587
21
239.626811441262
31
0.0
0
LINE
5
9e4
100
AcDbEntity
8
2-0
6
CONTINUOUS
62
4
100
AcDbLine
10
223.214583671117
20
256.830521945860
30
0.0
11
252.558534282826
21
256.830521945860
31
0.0
0
TEXT
5
9e5
100
AcDbEntity
8
2-B
62
3
370
-3
100
AcDbText
10
227.154
20
258.884
30
0.0
40
3.671
1
下部詳細図
41
0.856
50
0.000
100
AcDbText
0
MTEXT
5
9e6
100
AcDbEntity
8
2-0
62
7
370
-3
100
AcDbMText
10
242.477
20
229.365
30
0.0
40
2.066
41
0.000
71
4
72
1
1
\W0.972;ゴム押え　{\W0.700;PL-6t(SUS304)}
7
STANDARD
11
1.00000
21
0.00000
31
0.0
0
MTEXT
5
9e7
100
AcDbEntity
8
2-0
62
7
370
-3
100
AcDbMText
10
242.477
20
221.365
30
0.0
40
2.066
41
0.000
71
4
72
1
1
\W0.972;皿ＢＴ＆ＮＴ{\W0.700;  M8}
7
STANDARD
11
1.00000
21
0.00000
31
0.0
0
MTEXT
5
9e8
100
AcDbEntity
8
2-0
62
7
370
-3
100
AcDbMText
10
242.477
20
237.365
30
0.0
40
2.066
41
0.000
71
4
72
1
1
\W0.972;水密ゴム　{\W0.700;P}型{\W0.700; }φ{\W0.700;25x65x10}
7
STANDARD
11
1.00000
21
0.00000
31
0.0
0
MTEXT
5
9e9
100
AcDbEntity
8
2-0
62
7
370
-3
100
AcDbMText
10
208.463
20
190.127
30
0.0
40
2.066
41
0.000
71
4
72
1
1
\W0.972;クサビ{\W0.700;(SUS304)}
7
STANDARD
11
1.00000
21
0.00000
31
0.0
0
TEXT
5
9ea
100
AcDbEntity
8
2-0
62
7
370
-3
100
AcDbText
10
268.972
20
186.607
30
0.0
40
2.188
41
0.856
50
90.000
1
水圧方向
72
0
11
268.071
21
186.503
31
0.0
100
AcDbText
73
2
0
TEXT
5
9eb
100
AcDbEntity
8
2-0
62
7
370
-3
100
AcDbText
10
221.509
20
249.044
30
0.0
40
2.188
41
0.600
50
0.000
1
157
72
1
11
223.459
21
248.800
31
0.0
100
AcDbText
73
1
0
TEXT
5
9ec
100
AcDbEntity
8
2-0
62
7
370
-3
100
AcDbText
10
223.592
20
241.044
30
0.0
40
2.188
41
0.569
50
0.000
1
132
72
1
11
225.542
21
240.800
31
0.0
100
AcDbText
73
1
0
TEXT
5
9ed
100
AcDbEntity
8
2-0
62
7
370
-3
100
AcDbText
10
229.409
20
233.544
30
0.0
40
2.188
41
0.581
50
0.000
1
70
72
1
11
230.709
21
233.300
31
0.0
100
AcDbText
73
1
0
TEXT
5
9ee
100
AcDbEntity
8
2-0
62
7
370
-3
100
AcDbText
10
260.799
20
249.544
30
0.0
40
2.188
41
0.856
50
0.000
1
Ａ
72
1
11
262.099
21
249.300
31
0.0
100
AcDbText
73
1
0
TEXT
5
9ef
100
AcDbEntity
8
2-0
62
7
370
-3
100
AcDbText
10
260.815
20
197.680
30
0.0
40
2.188
41
0.651
50
90.000
1
 t
72
1
11
261.058
21
198.980
31
0.0
100
AcDbText
73
1
0
LINE
5
9f0
100
AcDbEntity
8
2-0
6
CONTINUOUS
62
4
100
AcDbLine
10
228.562688051978
20
187.841459362808
30
0.0
11
206.835106057651
21
187.841459362808
31
0.0
0
LINE
5
9f1
100
AcDbEntity
8
2-0
6
CONTINUOUS
62
4
100
AcDbLine
10
240.744277095145
20
218.709174852388
30
0.0
11
276.338290771027
21
218.709174852388
31
0.0
0
LINE
5
9f2
100
AcDbEntity
8
2-0
6
CONTINUOUS
62
4
100
AcDbLine
10
240.744277095145
20
234.709178151585
30
0.0
11
276.338290771027
21
234.709178151585
31
0.0
0
LINE
5
9f3
100
AcDbEntity
8
2-0
6
CONTINUOUS
62
4
100
AcDbLine
10
240.744277095145
20
226.709151758004
30
0.0
11
276.338290771027
21
226.709151758004
31
0.0
0
LINE
5
9f4
100
AcDbEntity
8
9-6
6
CONTINUOUS
62
7
100
AcDbLine
10
61.495907382144
20
147.948229290426
30
0.0
11
62.495907382144
21
147.948229290426
31
0.0
0
LINE
5
9f5
100
AcDbEntity
8
9-6
6
CONTINUOUS
62
7
100
AcDbLine
10
61.495907382144
20
154.198229290426
30
0.0
11
62.495907382144
21
154.198229290426
31
0.0
0
LINE
5
9f6
100
AcDbEntity
8
9-6
6
CONTINUOUS
62
7
100
AcDbLine
10
61.495907382144
20
147.948229290426
30
0.0
11
61.495907382144
21
154.198229290426
31
0.0
0
LINE
5
9f7
100
AcDbEntity
8
9-6
6
CONTINUOUS
62
4
100
AcDbLine
10
60.995880988563
20
147.948229290426
30
0.0
11
60.995880988563
21
154.198229290426
31
0.0
0
LINE
5
9f8
100
AcDbEntity
8
9-6
6
CONTINUOUS
62
4
100
AcDbLine
10
61.495907382144
20
147.948229290426
30
0.0
11
61.495907382144
21
154.198229290426
31
0.0
0
LINE
5
9f9
100
AcDbEntity
8
F-E_J_ADD
6
HIDDEN
62
4
100
AcDbLine
10
62.495907382144
20
154.198229290426
30
0.0
11
62.495907382144
21
147.948229290426
31
0.0
0
LINE
5
9fa
100
AcDbEntity
8
9-6
6
CONTINUOUS
62
7
100
AcDbLine
10
125.162540369501
20
154.198229290426
30
0.0
11
124.162540369501
21
154.198229290426
31
0.0
0
LINE
5
9fb
100
AcDbEntity
8
9-6
6
CONTINUOUS
62
7
100
AcDbLine
10
125.162540369501
20
147.948229290426
30
0.0
11
124.162540369501
21
147.948229290426
31
0.0
0
LINE
5
9fc
100
AcDbEntity
8
9-6
6
CONTINUOUS
62
7
100
AcDbLine
10
125.162540369501
20
154.198229290426
30
0.0
11
125.162540369501
21
147.948229290426
31
0.0
0
LINE
5
9fd
100
AcDbEntity
8
9-6
6
CONTINUOUS
62
4
100
AcDbLine
10
125.662566763082
20
154.198229290426
30
0.0
11
125.662566763082
21
147.948229290426
31
0.0
0
LINE
5
9fe
100
AcDbEntity
8
9-6
6
CONTINUOUS
62
4
100
AcDbLine
10
125.162540369501
20
154.198229290426
30
0.0
11
125.162540369501
21
147.948229290426
31
0.0
0
LINE
5
9ff
100
AcDbEntity
8
F-E_J_ADD
6
HIDDEN
62
4
100
AcDbLine
10
124.162540369501
20
147.948229290426
30
0.0
11
124.162540369501
21
154.198229290426
31
0.0
0
LINE
5
a00
100
AcDbEntity
8
9-6
6
CENTER
62
7
100
AcDbLine
10
60.301436544118
20
152.531562623759
30
0.0
11
62.912547655229
21
152.531562623759
31
0.0
0
LINE
5
a01
100
AcDbEntity
8
9-6
6
CENTER
62
7
100
AcDbLine
10
126.357011207527
20
152.531562623759
30
0.0
11
123.745900096416
21
152.531562623759
31
0.0
0
LINE
5
a02
100
AcDbEntity
8
9-6
6
CENTER
62
7
100
AcDbLine
10
60.301436544118
20
149.614895957093
30
0.0
11
62.912547655229
21
149.614895957093
31
0.0
0
LINE
5
a03
100
AcDbEntity
8
9-6
6
CENTER
62
7
100
AcDbLine
10
126.357011207527
20
149.614895957093
30
0.0
11
123.745900096416
21
149.614895957093
31
0.0
0
LINE
5
a04
100
AcDbEntity
8
9-6
6
CONTINUOUS
62
4
100
AcDbLine
10
55.245893635487
20
147.948229290426
30
0.0
11
55.245893635487
21
154.198229290426
31
0.0
0
LINE
5
a05
100
AcDbEntity
8
9-6
6
CONTINUOUS
62
4
100
AcDbLine
10
61.495907382144
20
154.198229290426
30
0.0
11
55.245893635487
21
154.198229290426
31
0.0
0
LINE
5
a06
100
AcDbEntity
8
9-6
6
CONTINUOUS
62
4
100
AcDbLine
10
61.495907382144
20
147.948229290426
30
0.0
11
55.245893635487
21
147.948229290426
31
0.0
0
LINE
5
a07
100
AcDbEntity
8
F-E_J_ADD
6
HIDDEN
62
4
100
AcDbLine
10
55.245893635487
20
151.073229290426
30
0.0
11
62.495907382144
21
151.073229290426
31
0.0
0
POLYLINE
5
a08
100
AcDbEntity
8
9-6
6
CONTINUOUS
62
  7
100
AcDb2dPolyline
66
1
10
0.0
20
0.0
30
0.0
70
0
0
VERTEX
5
a09
100
AcDbEntity
8
9-6
6
CONTINUOUS
62
  7
100
AcDbVertex
100
AcDb2dVertex
10
56.873000336150
20
151.863477485756
30
0.0
0
VERTEX
5
a0a
100
AcDbEntity
8
9-6
6
CONTINUOUS
62
  7
100
AcDbVertex
100
AcDb2dVertex
10
57.785500320256
20
151.863477485756
30
0.0
0
VERTEX
5
a0b
100
AcDbEntity
8
9-6
6
CONTINUOUS
62
  7
100
AcDbVertex
100
AcDb2dVertex
10
58.241750352045
20
151.073229290426
30
0.0
0
VERTEX
5
a0c
100
AcDbEntity
8
9-6
6
CONTINUOUS
62
  7
100
AcDbVertex
100
AcDb2dVertex
10
57.785500320256
20
150.282981134832
30
0.0
0
VERTEX
5
a0d
100
AcDbEntity
8
9-6
6
CONTINUOUS
62
  7
100
AcDbVertex
100
AcDb2dVertex
10
56.873000336150
20
150.282981134832
30
0.0
0
VERTEX
5
a0e
100
AcDbEntity
8
9-6
6
CONTINUOUS
62
  7
100
AcDbVertex
100
AcDb2dVertex
10
56.416750383834
20
151.073229290426
30
0.0
0
VERTEX
5
a0f
100
AcDbEntity
8
9-6
6
CONTINUOUS
62
  7
100
AcDbVertex
100
AcDb2dVertex
10
56.873000336150
20
151.863477485756
30
0.0
0
SEQEND
5
a10
100
AcDbEntity
8
9-6
0
LINE
5
a11
100
AcDbEntity
8
9-6
6
CENTER
62
7
100
AcDbLine
10
58.658417018711
20
151.073229290426
30
0.0
11
56.000083637694
21
151.073229290426
31
0.0
0
LINE
5
a12
100
AcDbEntity
8
9-6
6
CENTER
62
7
100
AcDbLine
10
57.329250338137
20
149.866314507902
30
0.0
11
57.329250338137
21
152.280144152423
31
0.0
0
CIRCLE
5
a13
100
AcDbEntity
8
9-6
6
CONTINUOUS
62
7
100
AcDbCircle
10
57.329250338137
20
151.073229290426
30
0.0
40
0.750000000000
0
CIRCLE
5
a14
100
AcDbEntity
8
9-6
6
CONTINUOUS
62
7
100
AcDbCircle
10
57.329250338137
20
151.073229290426
30
0.0
40
0.420833349228
0
CIRCLE
5
a15
100
AcDbEntity
8
9-6
6
DASHED2
62
7
100
AcDbCircle
10
57.329250338137
20
151.073229290426
30
0.0
40
0.500000000000
0
LINE
5
a16
100
AcDbEntity
8
9-6
6
CONTINUOUS
62
4
100
AcDbLine
10
131.412554116158
20
154.198229290426
30
0.0
11
131.412554116158
21
147.948229290426
31
0.0
0
LINE
5
a17
100
AcDbEntity
8
9-6
6
CONTINUOUS
62
4
100
AcDbLine
10
125.162540369501
20
147.948229290426
30
0.0
11
131.412554116158
21
147.948229290426
31
0.0
0
LINE
5
a18
100
AcDbEntity
8
9-6
6
CONTINUOUS
62
4
100
AcDbLine
10
125.162540369501
20
154.198229290426
30
0.0
11
131.412554116158
21
154.198229290426
31
0.0
0
LINE
5
a19
100
AcDbEntity
8
F-E_J_ADD
6
HIDDEN
62
4
100
AcDbLine
10
131.412554116158
20
151.073229290426
30
0.0
11
124.162540369501
21
151.073229290426
31
0.0
0
POLYLINE
5
a1a
100
AcDbEntity
8
9-6
6
CONTINUOUS
62
  7
100
AcDb2dPolyline
66
1
10
0.0
20
0.0
30
0.0
70
0
0
VERTEX
5
a1b
100
AcDbEntity
8
9-6
6
CONTINUOUS
62
  7
100
AcDbVertex
100
AcDb2dVertex
10
129.785447415495
20
150.282981095096
30
0.0
0
VERTEX
5
a1c
100
AcDbEntity
8
9-6
6
CONTINUOUS
62
  7
100
AcDbVertex
100
AcDb2dVertex
10
128.872947431390
20
150.282981095096
30
0.0
0
VERTEX
5
a1d
100
AcDbEntity
8
9-6
6
CONTINUOUS
62
  7
100
AcDbVertex
100
AcDb2dVertex
10
128.416697399600
20
151.073229290426
30
0.0
0
VERTEX
5
a1e
100
AcDbEntity
8
9-6
6
CONTINUOUS
62
  7
100
AcDbVertex
100
AcDb2dVertex
10
128.872947431390
20
151.863477446020
30
0.0
0
VERTEX
5
a1f
100
AcDbEntity
8
9-6
6
CONTINUOUS
62
  7
100
AcDbVertex
100
AcDb2dVertex
10
129.785447415495
20
151.863477446020
30
0.0
0
VERTEX
5
a20
100
AcDbEntity
8
9-6
6
CONTINUOUS
62
  7
100
AcDbVertex
100
AcDb2dVertex
10
130.241697367811
20
151.073229290426
30
0.0
0
VERTEX
5
a21
100
AcDbEntity
8
9-6
6
CONTINUOUS
62
  7
100
AcDbVertex
100
AcDb2dVertex
10
129.785447415495
20
150.282981095096
30
0.0
0
SEQEND
5
a22
100
AcDbEntity
8
9-6
0
LINE
5
a23
100
AcDbEntity
8
9-6
6
CENTER
62
7
100
AcDbLine
10
128.000030732934
20
151.073229290426
30
0.0
11
130.658364113951
21
151.073229290426
31
0.0
0
LINE
5
a24
100
AcDbEntity
8
9-6
6
CENTER
62
7
100
AcDbLine
10
129.329197413508
20
152.280144072950
30
0.0
11
129.329197413508
21
149.866314428429
31
0.0
0
CIRCLE
5
a25
100
AcDbEntity
8
9-6
6
CONTINUOUS
62
7
100
AcDbCircle
10
129.329197413508
20
151.073229290426
30
0.0
40
0.750000000000
0
CIRCLE
5
a26
100
AcDbEntity
8
9-6
6
CONTINUOUS
62
7
100
AcDbCircle
10
129.329197413508
20
151.073229290426
30
0.0
40
0.420833349228
0
CIRCLE
5
a27
100
AcDbEntity
8
9-6
6
DASHED2
62
7
100
AcDbCircle
10
129.329197413508
20
151.073229290426
30
0.0
40
0.500000000000
0
LINE
5
a28
100
AcDbEntity
8
9-6
6
CONTINUOUS
62
7
100
AcDbLine
10
61.495907382144
20
97.948229299926
30
0.0
11
62.495907382144
21
97.948229299926
31
0.0
0
LINE
5
a29
100
AcDbEntity
8
9-6
6
CONTINUOUS
62
7
100
AcDbLine
10
61.495907382144
20
104.198229299926
30
0.0
11
62.495907382144
21
104.198229299926
31
0.0
0
LINE
5
a2a
100
AcDbEntity
8
9-6
6
CONTINUOUS
62
7
100
AcDbLine
10
61.495907382144
20
97.948229299926
30
0.0
11
61.495907382144
21
104.198229299926
31
0.0
0
LINE
5
a2b
100
AcDbEntity
8
9-6
6
CONTINUOUS
62
4
100
AcDbLine
10
60.995880988563
20
97.948229299926
30
0.0
11
60.995880988563
21
104.198229299926
31
0.0
0
LINE
5
a2c
100
AcDbEntity
8
9-6
6
CONTINUOUS
62
4
100
AcDbLine
10
61.495907382144
20
97.948229299926
30
0.0
11
61.495907382144
21
104.198229299926
31
0.0
0
LINE
5
a2d
100
AcDbEntity
8
F-E_J_ADD
6
HIDDEN
62
4
100
AcDbLine
10
62.495907382144
20
104.198229299926
30
0.0
11
62.495907382144
21
97.948229299926
31
0.0
0
LINE
5
a2e
100
AcDbEntity
8
9-6
6
CONTINUOUS
62
7
100
AcDbLine
10
125.162540369501
20
104.198229299926
30
0.0
11
124.162540369501
21
104.198229299926
31
0.0
0
LINE
5
a2f
100
AcDbEntity
8
9-6
6
CONTINUOUS
62
7
100
AcDbLine
10
125.162540369501
20
97.948229299926
30
0.0
11
124.162540369501
21
97.948229299926
31
0.0
0
LINE
5
a30
100
AcDbEntity
8
9-6
6
CONTINUOUS
62
7
100
AcDbLine
10
125.162540369501
20
104.198229299926
30
0.0
11
125.162540369501
21
97.948229299926
31
0.0
0
LINE
5
a31
100
AcDbEntity
8
9-6
6
CONTINUOUS
62
4
100
AcDbLine
10
125.662566763082
20
104.198229299926
30
0.0
11
125.662566763082
21
97.948229299926
31
0.0
0
LINE
5
a32
100
AcDbEntity
8
9-6
6
CONTINUOUS
62
4
100
AcDbLine
10
125.162540369501
20
104.198229299926
30
0.0
11
125.162540369501
21
97.948229299926
31
0.0
0
LINE
5
a33
100
AcDbEntity
8
F-E_J_ADD
6
HIDDEN
62
4
100
AcDbLine
10
124.162540369501
20
97.948229299926
30
0.0
11
124.162540369501
21
104.198229299926
31
0.0
0
LINE
5
a34
100
AcDbEntity
8
9-6
6
CENTER
62
7
100
AcDbLine
10
60.301436544118
20
102.531562633259
30
0.0
11
62.912547655229
21
102.531562633259
31
0.0
0
LINE
5
a35
100
AcDbEntity
8
9-6
6
CENTER
62
7
100
AcDbLine
10
126.357011207527
20
102.531562633259
30
0.0
11
123.745900096416
21
102.531562633259
31
0.0
0
LINE
5
a36
100
AcDbEntity
8
9-6
6
CENTER
62
7
100
AcDbLine
10
60.301436544118
20
99.614895966593
30
0.0
11
62.912547655229
21
99.614895966593
31
0.0
0
LINE
5
a37
100
AcDbEntity
8
9-6
6
CENTER
62
7
100
AcDbLine
10
126.357011207527
20
99.614895966593
30
0.0
11
123.745900096416
21
99.614895966593
31
0.0
0
LINE
5
a38
100
AcDbEntity
8
9-6
6
CONTINUOUS
62
4
100
AcDbLine
10
55.245893635487
20
97.948229299926
30
0.0
11
55.245893635487
21
104.198229299926
31
0.0
0
LINE
5
a39
100
AcDbEntity
8
9-6
6
CONTINUOUS
62
4
100
AcDbLine
10
61.495907382144
20
104.198229299926
30
0.0
11
55.245893635487
21
104.198229299926
31
0.0
0
LINE
5
a3a
100
AcDbEntity
8
9-6
6
CONTINUOUS
62
4
100
AcDbLine
10
61.495907382144
20
97.948229299926
30
0.0
11
55.245893635487
21
97.948229299926
31
0.0
0
LINE
5
a3b
100
AcDbEntity
8
F-E_J_ADD
6
HIDDEN
62
4
100
AcDbLine
10
55.245893635487
20
101.073229299926
30
0.0
11
62.495907382144
21
101.073229299926
31
0.0
0
POLYLINE
5
a3c
100
AcDbEntity
8
9-6
6
CONTINUOUS
62
  7
100
AcDb2dPolyline
66
1
10
0.0
20
0.0
30
0.0
70
0
0
VERTEX
5
a3d
100
AcDbEntity
8
9-6
6
CONTINUOUS
62
  7
100
AcDbVertex
100
AcDb2dVertex
10
56.873000336150
20
101.863477495256
30
0.0
0
VERTEX
5
a3e
100
AcDbEntity
8
9-6
6
CONTINUOUS
62
  7
100
AcDbVertex
100
AcDb2dVertex
10
57.785500320256
20
101.863477495256
30
0.0
0
VERTEX
5
a3f
100
AcDbEntity
8
9-6
6
CONTINUOUS
62
  7
100
AcDbVertex
100
AcDb2dVertex
10
58.241750352045
20
101.073229299926
30
0.0
0
VERTEX
5
a40
100
AcDbEntity
8
9-6
6
CONTINUOUS
62
  7
100
AcDbVertex
100
AcDb2dVertex
10
57.785500320256
20
100.282981144332
30
0.0
0
VERTEX
5
a41
100
AcDbEntity
8
9-6
6
CONTINUOUS
62
  7
100
AcDbVertex
100
AcDb2dVertex
10
56.873000336150
20
100.282981144332
30
0.0
0
VERTEX
5
a42
100
AcDbEntity
8
9-6
6
CONTINUOUS
62
  7
100
AcDbVertex
100
AcDb2dVertex
10
56.416750383834
20
101.073229299926
30
0.0
0
VERTEX
5
a43
100
AcDbEntity
8
9-6
6
CONTINUOUS
62
  7
100
AcDbVertex
100
AcDb2dVertex
10
56.873000336150
20
101.863477495256
30
0.0
0
SEQEND
5
a44
100
AcDbEntity
8
9-6
0
LINE
5
a45
100
AcDbEntity
8
9-6
6
CENTER
62
7
100
AcDbLine
10
58.658417018711
20
101.073229299926
30
0.0
11
56.000083637694
21
101.073229299926
31
0.0
0
LINE
5
a46
100
AcDbEntity
8
9-6
6
CENTER
62
7
100
AcDbLine
10
57.329250338137
20
99.866314517402
30
0.0
11
57.329250338137
21
102.280144161923
31
0.0
0
CIRCLE
5
a47
100
AcDbEntity
8
9-6
6
CONTINUOUS
62
7
100
AcDbCircle
10
57.329250338137
20
101.073229299926
30
0.0
40
0.750000000000
0
CIRCLE
5
a48
100
AcDbEntity
8
9-6
6
CONTINUOUS
62
7
100
AcDbCircle
10
57.329250338137
20
101.073229299926
30
0.0
40
0.420833349228
0
CIRCLE
5
a49
100
AcDbEntity
8
9-6
6
DASHED2
62
7
100
AcDbCircle
10
57.329250338137
20
101.073229299926
30
0.0
40
0.500000000000
0
LINE
5
a4a
100
AcDbEntity
8
9-6
6
CONTINUOUS
62
4
100
AcDbLine
10
131.412554116158
20
104.198229299926
30
0.0
11
131.412554116158
21
97.948229299926
31
0.0
0
LINE
5
a4b
100
AcDbEntity
8
9-6
6
CONTINUOUS
62
4
100
AcDbLine
10
125.162540369501
20
97.948229299926
30
0.0
11
131.412554116158
21
97.948229299926
31
0.0
0
LINE
5
a4c
100
AcDbEntity
8
9-6
6
CONTINUOUS
62
4
100
AcDbLine
10
125.162540369501
20
104.198229299926
30
0.0
11
131.412554116158
21
104.198229299926
31
0.0
0
LINE
5
a4d
100
AcDbEntity
8
F-E_J_ADD
6
HIDDEN
62
4
100
AcDbLine
10
131.412554116158
20
101.073229299926
30
0.0
11
124.162540369501
21
101.073229299926
31
0.0
0
POLYLINE
5
a4e
100
AcDbEntity
8
9-6
6
CONTINUOUS
62
  7
100
AcDb2dPolyline
66
1
10
0.0
20
0.0
30
0.0
70
0
0
VERTEX
5
a4f
100
AcDbEntity
8
9-6
6
CONTINUOUS
62
  7
100
AcDbVertex
100
AcDb2dVertex
10
129.785447415495
20
100.282981104596
30
0.0
0
VERTEX
5
a50
100
AcDbEntity
8
9-6
6
CONTINUOUS
62
  7
100
AcDbVertex
100
AcDb2dVertex
10
128.872947431390
20
100.282981104596
30
0.0
0
VERTEX
5
a51
100
AcDbEntity
8
9-6
6
CONTINUOUS
62
  7
100
AcDbVertex
100
AcDb2dVertex
10
128.416697399600
20
101.073229299926
30
0.0
0
VERTEX
5
a52
100
AcDbEntity
8
9-6
6
CONTINUOUS
62
  7
100
AcDbVertex
100
AcDb2dVertex
10
128.872947431390
20
101.863477455520
30
0.0
0
VERTEX
5
a53
100
AcDbEntity
8
9-6
6
CONTINUOUS
62
  7
100
AcDbVertex
100
AcDb2dVertex
10
129.785447415495
20
101.863477455520
30
0.0
0
VERTEX
5
a54
100
AcDbEntity
8
9-6
6
CONTINUOUS
62
  7
100
AcDbVertex
100
AcDb2dVertex
10
130.241697367811
20
101.073229299926
30
0.0
0
VERTEX
5
a55
100
AcDbEntity
8
9-6
6
CONTINUOUS
62
  7
100
AcDbVertex
100
AcDb2dVertex
10
129.785447415495
20
100.282981104596
30
0.0
0
SEQEND
5
a56
100
AcDbEntity
8
9-6
0
LINE
5
a57
100
AcDbEntity
8
9-6
6
CENTER
62
7
100
AcDbLine
10
128.000030732934
20
101.073229299926
30
0.0
11
130.658364113951
21
101.073229299926
31
0.0
0
LINE
5
a58
100
AcDbEntity
8
9-6
6
CENTER
62
7
100
AcDbLine
10
129.329197413508
20
102.280144082450
30
0.0
11
129.329197413508
21
99.866314437929
31
0.0
0
CIRCLE
5
a59
100
AcDbEntity
8
9-6
6
CONTINUOUS
62
7
100
AcDbCircle
10
129.329197413508
20
101.073229299926
30
0.0
40
0.750000000000
0
CIRCLE
5
a5a
100
AcDbEntity
8
9-6
6
CONTINUOUS
62
7
100
AcDbCircle
10
129.329197413508
20
101.073229299926
30
0.0
40
0.420833349228
0
CIRCLE
5
a5b
100
AcDbEntity
8
9-6
6
DASHED2
62
7
100
AcDbCircle
10
129.329197413508
20
101.073229299926
30
0.0
40
0.500000000000
0
LINE
5
a5c
100
AcDbEntity
8
9-E
6
CONTINUOUS
62
4
100
AcDbLine
10
132.261456940840
20
151.073229290426
30
0.0
11
144.162540365701
21
151.073229290426
31
0.0
0
LINE
5
a5d
100
AcDbEntity
8
9-E
6
CONTINUOUS
62
4
100
AcDbLine
10
132.261456940840
20
101.073229299926
30
0.0
11
144.162540365701
21
101.073229299926
31
0.0
0
TEXT
5
a5e
100
AcDbEntity
8
1-8
62
7
370
-3
100
AcDbText
10
348.425
20
87.550
30
0.0
40
2.719
1
ＳＵＳ３０４
41
0.856
50
0.000
100
AcDbText
0
TEXT
5
a5f
100
AcDbEntity
8
1-8
62
7
370
-3
100
AcDbText
10
346.118
20
82.561
30
0.0
40
2.693
41
0.803
50
0.000
1
ＳＵＳ３０４相当
72
1
11
357.990
21
83.569
31
0.0
100
AcDbText
73
2
0
TEXT
5
a60
100
AcDbEntity
8
1-8
62
7
370
-3
100
AcDbText
10
371.118
20
82.561
30
0.0
40
2.693
41
0.803
50
0.000
1
ＳＵＳ３０４相当
72
1
11
382.990
21
83.569
31
0.0
100
AcDbText
73
2
0
TEXT
5
a61
100
AcDbEntity
8
1-8
62
7
370
-3
100
AcDbText
10
346.118
20
77.561
30
0.0
40
2.693
41
0.803
50
0.000
1
ＳＵＳ３０４相当
72
1
11
357.990
21
78.569
31
0.0
100
AcDbText
73
2
0
TEXT
5
a62
100
AcDbEntity
8
1-8
62
7
370
-3
100
AcDbText
10
371.118
20
77.561
30
0.0
40
2.693
41
0.803
50
0.000
1
ＳＵＳ３０４相当
72
1
11
382.990
21
78.569
31
0.0
100
AcDbText
73
2
0
TEXT
5
a63
100
AcDbEntity
8
0-0
62
7
370
-3
100
AcDbText
10
301.364
20
35.007
30
0.0
40
3.626
1
図示
41
0.856
50
0.000
100
AcDbText
0
TEXT
5
a64
100
AcDbEntity
8
0-0
62
7
370
-3
100
AcDbText
10
312.210
20
45.507
30
0.0
40
3.626
41
0.856
50
0.000
1
標準図
72
1
11
318.500
21
47.000
31
0.0
100
AcDbText
73
2
0
ENDSEC
 0
SECTION
  2
OBJECTS
 0
DICTIONARY
  5
C
100
AcDbDictionary
  3
ACAD_GROUP
350
D
  3
ACAD_MLINESTYLE
350
E
 0
DICTIONARY
  5
D
102
{ACAD_REACTORS
102
}
100
AcDbDictionary
 0
DICTIONARY
  5
E
102
{ACAD_REACTORS
102
}
100
AcDbDictionary
  3
STANDARD
350
13
0
MLINESTYLE
  5
13
102
{ACAD_REACTORS
102
}
100
AcDbMlineStyle
  2
STANDARD
 70
    0
3

62
256
51
90.0
52
90.0
71
0
0
ACDBPLACEHOLDER
  5
14
102
{ACAD_REACTORS
102
}
0
ENDSEC
0
EOF
